Song name
# A B C D E F G H I J K L M N O P Q R S T U V W X Y Z

Peter Gabriel - Here Comes The Flood tab

Superb track from the first Peter Gabriel album and has become a classic favourite 
for Gabriel fans. As ever any comments, good or bad are welcome.

TAB Legend:

h	- Hammer-on 
p	- Pull-off
b	- Bend note 
r	- Return from bend
s	- Slide
\	- Slide down
~	- Vibrato


e|--------------------------|---------------------|
B|--------------------------|---------------------|
G|--------------------------|-11b13-13r11-9-11----|
D|------6s4---------2s4-----|------------------11-|
A|-11s4-----2s4-2s4-----7s4-|---------------------|
E|--------------------------|---------------------|


e|----------------------------------|-------------------------|
B|-12b14r-9-------------------------|-------------------------|
G|----------11b12p9----9-11-------9-|------9-9----------11-11-|
D|------------------11------11-11---|-9s11-----11-11s13-------|
A|----------------------------------|-------------------------|
E|----------------------------------|-------------------------|


e|------------------------|-------------------------------------------------------|
B|---------------9s10~~~\-|----------------9h10-10p9-9s14-14-14~~~~b16r14~~~~~~~\-|
G|------------------------|---------8-9-11----------------------------------------|
D|-11b13r11p9-------------|-9s11-11-----------------------------------------------|
A|------------11----------|-------------------------------------------------------|
E|------------------------|-------------------------------------------------------|

Tap to rate this tab
# A B C D E F G H I J K L M N O P Q R S T U V W X Y Z