Song name
# A B C D E F G H I J K L M N O P Q R S T U V W X Y Z

Peter Gabriel - Book Of Love tab

-------------------------------------------------------------------------------
			     BOOK OF LOVE - Peter Gabriel
-------------------------------------------------------------------------------
Tabbed by: Nick

Tuning:capo on 1st fret


e|--------------------------------------|
B|-3-----1-0-3---3-3---3-----1-0-3------|
G|---0-------2-0-2-------0-------2-0-0--|
D|-----0-------------------0-------0-0--|
A|--------------------------------------|
E|-3-----0---2-----3---3-----0---2------|


pretty simple, play the whole way through the song.
basically it is just G,C,D plus a few bass notes but plucking specific strings rather 
strumming the whole chord
Tap to rate this tab
 
# A B C D E F G H I J K L M N O P Q R S T U V W X Y Z