Song name
# A B C D E F G H I J K L M N O P Q R S T U V W X Y Z

Peter Gagnon - The Precious Blood tab

-------------------------------------------------------------------------------
                        THE PRECIOUS BLOOD - PETER GAGNON
-------------------------------------------------------------------------------
Tabbed by:christiantabber
E-mail:   fw5treehouse@hotmail.com

Tuning:   STANDARD


INTRO:

E|-3-----0-------0-------0-------5-|-3-----0-------0-------0-------0-|---|
B|-----3-------3-------3-------3---|-----3-------3-------3-------3---|---|
G|---0-------0-------0-------0-----|---2-------2-------2-------2-----|---|
D|---------------------------------|-3-------3-------3-------3-------|---|
A|-3-------3-------3-------3-------|---------------------------------|---|
E|---------------------------------|---------------------------------|---|


E|-3-----0-------0-------0-------5-|-3-----0-------0-------0-------0--|
B|-----3-------3-------3-----------|-----3-------3-------3-------3----|
G|---0-------0-------0-------0h5---|---2-------2-------2-------2------|
D|---------------------------------|-3-------3-------3-------3--------|
A|-3-------3-------3-------3-------|----------------------------------|
E|---------------------------------|----------------------------------|

VERSE:
E|-------0-------0-------0-------0-|-------0-------0-------0-------0--|
B|-----3-------3-------3-------3---|-----3-------3-------3-------3----|
G|-----------5---------------5-----|---2-------5-------2-------5------|
D|---5-----5---------5-----5-------|-3-------7-------3-------7--------|
A|-3---------------3---------------|----------------------------------|
E|---------------------------------|----------------------------------|


E|-------0-------0-------0-------0-|-------0-------0-------0-------0--|
B|-----3-------3-------3-------3---|-----3-------3-------3-------3----|
G|-----------5---------------5-----|---2-------5-------2-------5------|
D|---5-----5---------5-----5-------|-3-------7-------3-------7--------|
A|-3---------------3---------------|----------------------------------|
E|---------------------------------|----------------------------------|


E|-------0-------0-------0-------0-|-------0-------0------------------|
B|---0-------0---------1-----0-----|-----1-------1---------3-------3--|
G|-----5-------5-----2---------5---|---0-------0---------4-------5----|
D|-7-------7-------3-------7-------|-------------------5-------5------|
A|---------------------------------|-3-------3---------------5--------|
E|---------------------------------|-----------------3----------------|


E|-------------------------------0-|-------0-------0-|----------------------|
B|-----1h3-----1h3-----------0-----|-----1-------1---|-----------------0===-|
G|---2-------2---------5h7-----5---|---2-------2-----|-----5h7-----5h7-0===-|
D|-3-------3-------5h7-----7-------|-3-------3-------|-5h7-------7----------|
A|---------------------------------|-----------------|---------5------------|
E|---------------------------------|-----------------|-----------------3===-|

CHORUS
E|-------1-------1-------0-------0-|-------0-------0------------------|
B|-----1-------1-------1-------1---|-----1-------1---------3-------3--|
G|---2-------2-------0-------0-----|---2-------2---------4-------4----|
D|---------3-----------------------|-------------------5-------5------|
A|-----------------3-------3-------|-0-------0------------------------|
E|-1-------------------------------|-----------------3-------3--------|

E|-------1-------1-------0-------0-|-------0-------0------------------|
B|-----1-------1-------1-------1---|-----1-------1---------3-------3--|
G|---2-------2-------0-------0-----|---2-------2---------4-------4----|
D|---------3-----------------------|-------------------5-------5------|
A|-----------------3-------3-------|-0-------0------------------------|
E|-1-------------------------------|-----------------3-------3--------|


E|-------1-------1-------0-------0-|---------------7-|-8-----7-----5--|
B|-----1-------1-------1-------1---|-------8-----8---|-----------0-6--|
G|---2-------2-------0-------0-----|-----9-----9-----|-----5---0------|
D|---------3-----------------------|---9-------------|---7------------|
A|-----------------3-------3-------|---------7-------|-8-----------3--|
E|-1-------------------------------|-0---------------|----------------|


E|-----------1----------------------0-----------|--------|-Last time to--|
B|--------1-----------1h-3---p0-----------1-----|--1--3--|--CODA---------|
G|-----2-----------2-------------0-----------2--|--2--4--|---------------|
D|--------------3-------------------------------|--------|---------------|
A|-------------------------------------0--------|--------|---------------|
E|--1----------------------3--------------------|--1--3--|---------------|
 _______________________________________________________________________
/After First Chorus
E|-------0-------0-------0-------0-|-------0-------0-------0-------0--|
B|-----3-------3-------3-------3---|-----3-------3-------3-------3----|
G|-----------5---------------5-----|---2-------5-------2-------5------|
D|---5-----5---------5-----5-------|-3-------7-------3-------7--------|
A|-3---------------3---------------|----------------------------------|
E|---------------------------------|----------------------------------|


E|-------0-------0-------0-------0-|-------0-------0-------0-------0-|-------|
B|-----3-------3-------3-------3---|-----3-------3-------3-------3---|--GO---|
G|-----------5---------------5-----|---2-------5-------2-------5-----|-------|
D|---5-----5---------5-----5-------|-3-------7-------3-------7-------|--TO---|
A|-3---------------3---------------|---------------------------------|-------|
E|---------------------------------|-----------------------------------------|VERSE
  _____________________________________________________________________
/After Second Chorus    BRIDGE
E|---------------------------------|----------------------------------|
B|-------3-------3-------3-------3-|-------3-------3-------3-------3--|
G|-----5-------5-------5-------5---|-----5-------5-------5-------5----|
D|---5-------5-------5-------5-----|---5-------5-------5-------5------|
A|-3-------7-------3-------7-------|-3-------7-------3-------7--------|
E|---------------------------------|----------------------------------|


E|--------------------------------|---------------------------------|
B|-------3------3-------3-------3-|-------3------3-------3-------3--|
G|-----5------5-------5-------5---|-----5------5-------5-------5----|
D|---5------5-------5-------5-----|---5------5-------5-------5------|
A|-3--------------5-------3-------|-0--------------7-------0--------|
E|--------------------------------|---------------------------------|



E|--------------------------------|----------------------------------|
B|-------3------3-------3-------3-|-------3-------3-------3-------3--|
G|-----5------5-------5-------5---|-----5-------5-------4-------4----|
D|---5------5-------5-------5-----|---5-------5-------5-------5------|
A|----------------5-------3-------|-----------------5----------------|
E|-6------------------------------|-3-----------------------3--------|


E|--------------------------------|---------------------------------|
B|-------3------3-------3-------3-|-------3------3-------3-------3--|
G|-----5------5-------5-------5---|-----5------5-------5-------5----|
D|---5------5-------5-------5-----|---5------5-------5-------5------|
A|-3--------------5-------3-------|-0--------------7-------0--------|
E|--------------------------------|---------------------------------|


E|--------------------------------|------------------------------0--|
B|-------3------3-------3-------3-|-------3------3-------3---1-3----|
G|-----5------5-------5-------5---|-----5------5-------5------------|
D|---5------5-------5-------5-----|---5------5-------5--------------|
A|----------------5-------3-------|----------------5----------------|
E|-6------------------------------|-3----------------------3--------|

                                  (+)CODA
E|-3===----To CHORUS-|---|----------------------------------|
B|-1===--------------|---|-------3-------3-------3-------3--|
G|-2===--------------|---|-----5-------5-------5-------5----|
D|-3===--------------|---|---5-------5-------5-------5------|
A|-3===--------------|---|-3-------7-------3-------7--------|
E|-1===--------------|---|----------------------------------|


E|---------------------------------|----------------------------------|
B|---------------------------------|-------3-------3-------3-------3--|
G|-----5h7-----5h7-----5h7-----5h7-|-----5-------5-------5-------5----|
D|---5-----5h7-------5-----5h7-----|---5-------5-------5-------5------|
A|-8---------------8---------------|-3-------7-------3-------7--------|
E|---------------------------------|----------------------------------|


E|---------------------------------|-3===========-------------|
B|-----1h3-----1h3-----1h3-----1h3-|---3===========-----------|
G|---0-----0h2-------0-----0h2-----|-----5==========----------|
D|-3---------------3---------------|-------5===========-------|
A|---------------------------------|---------3===========-----|
E|---------------------------------|--------------------------|

VERSE 1
 Before the cross I kneel and see
 The measure of my sin
 How You became a curse for me
 Though You were innocent
 The magnitude of Your great love
 Was shown in full degree
 When righteous blood, the crimson spill
 Rained down from Calvary

CHORUS
 Oh, the precious blood
 That flowed from Mercys side
 Washed away my sin
 When Christ my Savior died
 Oh, the precious blood
 Of Christ the crucified
 It speaks for me before Your throne
 Where I stand justified

VERSE 2
 And who am I that I should know
 This treasure of such worth
 My Saviors pure atoning blood
 Shed for the wrath Id earned
 For sin has stained my every deed
 My every word and thought
 What wondrous love that makes me one
 Your priceless blood has bought

BRIDGE
 A crown of thorns, pierced hands and feet
 A body bruised, and Mercys plea
------------------------------------
Alternate Fingering

If stretching is too difficult try playing these measures......

E|-------0-------0-------0-------0--|
B|-----3-------3-------3-------3----|
G|---2-------5-------2-------5------|
D|-3-------7-------3-------7--------|
A|----------------------------------|
E|----------------------------------|

...with harmonics

E|-------0----------0-------0----------0--|
B|-----3-------1----------3-------1-------|
G|---2------------------2-----------------|
D|-3------------+12---3------------+12----|
A|---------+12----------------+12---------|
E|----------------------------------------|

Song found on sovereigngracemusic.org, sung by Shannon Harris on the "Valley of Vision" album.

Peter Gagnon's official webpage: http://www.sovereigngracemusic.org/Artists/Peter_Gagnon

************************************

| /   slide up
| \   slide down
| h   hammer-on
| p   pull-off
| ~   vibrato
| +   harmonic
| x   Mute note
| b   Bend
| pb  Pre-bend
| br  Bend release
| pbr Pre-bend release
| brb Bend release bend

************************************
Tap to rate this tab
# A B C D E F G H I J K L M N O P Q R S T U V W X Y Z