Song name
# A B C D E F G H I J K L M N O P Q R S T U V W X Y Z

Peter Green - Proud Pinto tab

Artist: Peter Green, Album: In The Skies, Title: Proud Pinto
Tabber: Max Backman

Disclaimer: This tab is no way intended to infringe on any copyrighted material, it is
merely my own interpretation of a song.

Here we go, one of my all-time favorite songs by the great Peter Green, recorded in 79' this 
somewhat melancholic-feeling tune is a great example of some deep understanding in the 
melodic capabilities of the pentatonic scale. Be aware that he tunes his guitar a quarter step up.


~00:11

.I

e:|.|--------7------------------------------7-----7-----------5/7--------|
B:|.|----7/9------9\7-5-------5-5---7p5-7/9---9-----9-7p5-7p5-----7-9----|
G:|.|-------------------6-4h6--------------------------------------------|
D:|.|--------------------------------------------------------------------|
A:|.|--------------------------------------------------------------------|
E:|.|--------------------------------------------------------------------|



e:|----9p7---------------------------------------------------------------------|.|
B:|-----------9p7-----------------------------------------------------12-------|.|
G:|-------------------9-9-11p9--------------9--11-13\11--9h11p9-11b13----9~----|.|
D:|----------------------------11-9----9h11------------------------------------|.|
A:|----------------------------------------------------------------------------|.|
E:|----------------------------------------------------------------------------|.| x2


.II

e:|.|------------------------------------------|
B:|.|----/8----6-------------------------------|
G:|.|------------7----5b6rp4-5-----------------|
D:|.|--------------------------3-3-3-5-(5)-----|
A:|.|------------------------------------------|
E:|.|------------------------------------------|



e:|-----------------------6-8-8b10-8p6--------------------3---------------|
B:|--------8~--6-8p6-11p8--------------8p6-(6)/3~-------(3)-6-3-----------|
G:|----7-7----------------------------------------------^-------5-3-5~----|
D:|----------------------------------------------------^------------------|
A:|---------------------------------------------------^-------------------|
E:|----------------------------------------------RAKE^--------------------|



e:|------------6-5-6-6/8~---6-6-5h6p5------|.|
B:|-----------6-----------------------8~---|.|
G:|---------^------------------------------|.|
D:|----RAKE^-------------------------------|.|
A:|----------------------------------------|.|
E:|----------------------------------------|.| x2



.III

e:|.|----------12-----------------------------------------12-------|
B:|.|----12/14-------14\12-10---------10-10---12p10-12/14----14----|
G:|.|-------------------------11-9h11------------------------------|
D:|.|--------------------------------------------------------------|
A:|.|--------------------------------------------------------------|
E:|.|--------------------------------------------------------------|



e:|----12----------------10/12----------|
B:|-------14-12p10-12p10-------12-14~---|
G:|-------------------------------------|
D:|-------------------------------------|
A:|-------------------------------------|
E:|-------------------------------------|



e:|----14p12------------------------------------------------------------------------------|.|
B:|-------------14p12------------------------------------------------------------17-------|.|
G:|----------------------14-14-16p14----------------14--16-18\16--14h16p14-16b18----14~---|.|
D:|----------------------------------16-14----14h16---------------------------------------|.|
A:|---------------------------------------------------------------------------------------|.|
E:|---------------------------------------------------------------------------------------|.| x2


.ENDING

e:|--------------------------------------------9----9--------------------------------------|.|
B:|-----------------12------------------12-------12---12-------12--------------------------|.|
G:|----9h11p9-11b13----9~--9h11p9-11b13----9~------------11b13----9~--9h11p9-11b13-11-9----|.|
D:|----------------------------------------------------------------------------------------|.|
A:|----------------------------------------------------------------------------------------|.|
E:|----------------------------------------------------------------------------------------|.|



e:|---------------------------------------9---9----9-------------------|.|
B:|-----------------12-----------------12-------12---12-------12-------|.|
G:|----9h11p9-11b13----9~---11-9-11b13------------------11b13----9~----|.|
D:|--------------------------------------------------------------------|.|
A:|--------------------------------------------------------------------|.|
E:|--------------------------------------------------------------------|.|



Coda: 
.I 
.II 
.III 
.II 
.I (played thru once -not twice- then into ENDING)
.ENDING

Tap to rate this tab
 
# A B C D E F G H I J K L M N O P Q R S T U V W X Y Z