Song name
# A B C D E F G H I J K L M N O P Q R S T U V W X Y Z

Peter Green - Evil Woman Blues tab

Artist: Peter Green
Song: Evil Woman Blues



(0:03)
e----------------------------------------------------------------|
B----------------------------------------------------------------|
G--------------5b7-5-3h5---5b7r5---------------------------------|
D--------------------------------5-------------------------------|
A-3--4--5--------------------------------------------------------|
E----------------------------------------------------------------|


(0:09)
e------3--------6-3-------------------------3--------------------|
B--------3--3/6-----------------------------3--6-3---------------|
G--------------------------5b7r5-(3)-------3---------------------|
D-----------------------------------(5)--------------(3h5p3h)----|
A----------------------------------------------------------------|
E----------------------------------------------------------------|


e----------------------------------------------------------------|
B----------------------------------------------------------------|
G-5b7r5-3--------------------------------------------------------|
D---------5---------------3--------------------------------------|
A----------------------------------------------------------------|
E----------------------------------------------------------------|

(0:31)		       (0:34)
e----------------------------------------------------------------|
B--------------------------13b15r13------------------------------|
G--3vv----(3)----------------------12v------------3h5p3----------|
D------(5)--------------------------------------5----------------|
A----------------------------------------------------------------|
E----------------------------------------------------------------|

(0:39)
e-----3----------------------------------------------------------|
B---3---6p3------------------------------------------------------|
G--3-------5b7r5p3---------------5b7-----------------------------|
D-3---------------5----------------------------------------------|
A----------------------------------------------------------------|
E----------------------------------------------------------------|

e----------------------------------------------------------------|
B----------------------------------------------------------------|
G--5b7r5p3--3----------------------3-5-3---3h5p3-----------------|
D---------5----------------------5-------5---------5-3-----------|
A------------------------------5-----------------5------3b5vp(0)-|
E---------------------------------------------------------------3|

e-3---------6----------------------------------------------------|
B--3-3/6/h8----------13b15-13-11----13b15------------------------|
G------------------12------------12------------------------------|
D----------------------------------------------------------------|
A----------------------------------------------------------------|
E----------------------------------------------------------------|

e---10-----------------------------------------------------------|
B-11---13p11-----------------------------------------------------|
G-12---------12-12vv---------------------------------------------|
D-12-------------------------------------------------------------|
A----------------------------------------------------------------|
E----------------------------------------------------------------|

(1:06)
e----------------------------------------------------------------|
B--------------6/8-6---------------------------------------------|
G--5b7r5--3----------5---5b7r5p3h5p3-------5sb7r5----------------|
D-----------5----------------------------------------------------|
A----------------------------------------------------3h5---------|
E----------------------------------------------------------------|

(1:19)   		can
e----3------------------------10p8-----8-------------------------|
B----3------------------------------11---11vv--------------------|
G----3-3vv-------------------------------------------------------|
D----------------------------------------------------------------|
A----------------------------------------------------------------|
E----------------------------------------------------------------|

(1:32)
e----5b6-3---3h5p3-----------------------------------------------|
B-(3)------3-------------5b6r5-3---------------------------------|
G--------------------------------5b6v--3-------------------------|
D----------------------------------------------------------------|
A----------------------------------------------------------------|
E----------------------------------------------------------------|

(1:38)
e-3-------6--------------10b11-8---------------------------------|
B-3-3--6b8-----------------------8-------------------------------|
G-x--------------------------------------------------------------|
D----------------------------------------------------------------|
A----------------------------------------------------------------|
E----------------------------------------------------------------|

(1:44)				
e--8b10-8-------8--10--------------------------------------------|
B---------10b11--------8-----------------------------------------|
G-------------------------------5b7r5p3h5--5b7r5-----------------|
D------------------------------------------------5---------------|
A----------------------------------------------------------------|
E----------------------------------------------------------------|
    	          
e--3-------------------------------------------------------------|
B---3--6b8--6----------------------------------------------------|
G-------------------5b7r5-3h5-5b7r5-3----------------------------|
D----------------------------------------------------------------|
A----------------------------------------------------------------|
E----------------------------------------------------------------|

e---------3------------------------------------------------------|
B---------3------------------------------------------------------|
G----------------------------------------------------------------|
D----------------------------------------------------------------|
A----------------------------------------------------------------|
E----------------------------------------------------------------|

e-----3----------------------------------------------------------|
B-3-----6--------------------------------------------------------|
G-3--------3vv------------5b7r5-3h5-5b7r5-3----------------------|
D-5---------------------5-------------------5--------------------|
A----------------------------------------------------------------|
E----------------------------------------------------------------|



SOLO:

e----8b10--8----8--8b10------------10p8----8-10p8--------6h8p6-8-|
B--8---------11---------8h11-----8------11-------11-8h11---------|
G----------------------------------------------------------------|
D----------------------------------------------------------------|
A----------------------------------------------------------------|
E----------------------------------------------------------------|

(2:20)
e--13------------------------------------------------------------|
B--13--11---11-13b14-11------11h13p11----------------------------|
G---------12------------12---------------------------------------|
D----------------------------------------------------------------|
A----------------------------------------------------------------|
E----------------------------------------------------------------|

e----------------------------------------------------------------|
B----------------------------------------------------------------|
G-(5)-5b7r5-3h5---5b7p5-3h5---5p3h5p3---3---3--5--5b7r5-3--------|
D--5------------5-----------5---------5---5---------------5------|
A----------------------------------------------------------------|
E----------------------------------------------------------------|

e-3--------3-6-8b9r8-6-3h6-------11b13--11--8-------------(8)----|
B---3--6b7------------------------------------11b13-11vv---8-----|
G----------------------------------------------------------------|
D----------------------------------------------------------------|
A----------------------------------------------------------------|
E----------------------------------------------------------------|

e----------------------------------------------------------------|
B-------------3--------------------------------------------------|
G---3-5-5b7r5---3h5p3-3-5b7r5------------------------------------|
D-5---------------------------5--(5p3)---------------------------|
A----------------------------------------------------------------|
E----------------------------------------------------------------|

e---------------------------------3------------------------------|
B---------------------------------3------------------------------|
G--------------3vv----5h7-2h3-----3-5p3----3vv-5v----------------|
D-----3---3(h5)-------------------------5-3----------------------|
A--/5---5--------------------------------------------------------|
E----------------------------------------------------------------|

e----8b10-----------8----8-8b10----13----------------------------|
B--8------11---8h11---11-----------13--13-11h13-11v--------------|
G----------------------------------------------------7vv---------|
D----------------------------------------------------------------|
A----------------------------------------------------------------|
E----------------------------------------------------------------|

e--13b15---13h15-13-10--8--10-8----8----------13-----------------|
B-------------------------------11-------13b15---13-13-11--8-11p8|
G----------------------------------------------------------------|
D----------------------------------------------------------------|
A----------------------------------------------------------------|
E----------------------------------------------------------------|

e--3-------------------------------------------------------------|
B-3--------------------------------------------------------------|
G-3--5p3----------------------3----------------------------------|
D------------3h5----------------5--------------------------------|
A----------5------3b5r3-------------3----------------------------|
E-----------------------6p3-----------6p3------------------------|

e----------------------------------------------------------------|
B-----------------------------6b8---3----------------------------|
G-3vv---3-----------------------------5-3-2-(0)------------------|
D-----5----------------------------------------------------------|
A----------------------------------------------------------------|
E----------------------------------------------------------------|

e----------------------3-----------------------------------------|
B----------------------3--6-3------------------------------------|
G------0--5--3-0-0------------5b7r5-3---5b7v---------------------|
D--0-3-----------------------------------------------------------|
A----------------------------------------------------------------|
E----------------------------------------------------------------|

e-----------8-8b10r8---------------------------------------------|
B--11p8--11----------11-------------13b15r13p11h13-13b15r13------|
G-----------------------------------------------------------12---|
D----------------------------------------------------------------|
A----------------------------------------------------------------|
E----------------------------------------------------------------|

e------------------------13b15----13p10--------------------------|
B------8--------------------------------13p11--------------------|
G--------10----------------------------------12------------------|
D-8/10------8/108------------------------------------------------|
A----------------------------------------------------------------|
E----------------------------------------------------------------|

e--3-------------------------------------------------------------|
B--3---6---------------------------------------------------------|
G---------5---3-----5b6-5b6-5p3---3------------------------------|
D-----------5-------------------5--------------------------------|
A----------------------------------------------------------------|
E----------------------------------------------------------------|

e---8b10--10--8b10r8-6-6p3-------3-------------------------------|
B-8--------------------------------------------------------------|
G---------------------------5--3---------------------------------|
D----------------------------------------------------------------|
A----------------------------------------------------------------|
E----------------------------------------------------------------|
Tap to rate this tab
# A B C D E F G H I J K L M N O P Q R S T U V W X Y Z