Song name
# A B C D E F G H I J K L M N O P Q R S T U V W X Y Z

Peter Green - The Apostle tab

                                    Apostle  (In The Skies album)                                 

                                                                     Peter Green

This tab is based on my Guitar Pro tab so nothing new here but hopefully it'll 
help those who dont have GP
enjoy



Lead



     E  S S S  S E  T  T  S S. T  Q        S T  T  S S Q     H         
E||-------------------------------------|-----------------------------|
B||-------------------------------------|-----------------------------|
G||--------------7--6h-7p-6----7S-9~----|--7-6h-7p-6------------------|
D||-------5-7S-9------------9-----------|------------9-9~-------------|
A||-----7-------------------------------|-----------------------------|
E||-------------------------------------|-----------------------------|


  E  S S S  S E  T  T  S S. T  Q        S T  T  S S S S S S T  E  T  S Q      
-------------------------------------|---------------------------------------|
-------------------------------------|---------------------------------------|
--------------7--6h-7p-6----7S-9~----|--7-6h-7p-6-----6----------------------|
-------5-7S-9------------9-----------|------------9-7---7-5-7S-9--7S-5-------|
-----7-------------------------------|---------------------------------7~----|
-------------------------------------|---------------------------------------|


  E  E  E  E  Q      S  T  T E      E  E  E  S  S S  S  E  E  E   
---------------------------------|-------------------------------|
---------------------------------|-------------------------------|
---------------------------------|-------------------------------|
---------------------------------|-------------------------------|
-----7--5-----7br----5h-7p-5-----|--5--7--5----------------------|
-----------7-----------------7~--|-----------7p-5-5p-3p-0--0-----|


  E  E  E  E  Q      S  T  T E      E   E  Q     H         
---------------------------------|------------------------|
---------------------------------|------------------------|
---------------------------------|------------------------|
---------------------------------|------------------------|
-----7--5-----7br----5h-7p-5-----|--5h--7--7~-------------|
-----------7-----------------7~--|------------------------|


  E  S S S  S S S T  T  S S. T  Q        S T  T  S S Q     H         
--------------------------------------|-----------------------------|
--------------------------------------|-----------------------------|
----------------7-6h-7p-6----7S-9~----|--7-6h-7p-6------------------|
-------5-7S-9-------------9-----------|------------9-9~-------------|
-----7--------------------------------|-----------------------------|
--------------------------------------|-----------------------------|


  E  S S S  S E  T  T  S S. T  Q        S T  T  S S S S S S T  E  T  S Q      
-------------------------------------|---------------------------------------|
-------------------------------------|---------------------------------------|
--------------7--6h-7p-6----7S-9~----|--7-6h-7p-6-----6----------------------|
-------5-7S-9------------9-----------|------------9-7---7-5-7S-9--7S-5-------|
-----7-------------------------------|---------------------------------7~----|
-------------------------------------|---------------------------------------|


  E  E  E  E  Q      S  T  T E      E   E  Q     H         
---------------------------------|------------------------|
---------------------------------|------------------------|
---------------------------------|------------------------|
---------------------------------|------------------------|
-----7--5-----7br----5h-7p-5-----|--5h--7--7~-------------|
-----------7-----------------7~--|------------------------|


  E  E  E  E  Q      S  T  T E      E  E  E  S  S S  S  E  E  E   
---------------------------------|-------------------------------|
---------------------------------|-------------------------------|
---------------------------------|-------------------------------|
---------------------------------|-------------------------------|
-----7--5-----7br----5h-7p-5-----|--5--7--5----------------------|
-----------7-----------------7~--|-----------7p-5-5p-3p-0--0-----|


    W                    E  E  S E  S Q     E   E     H          H         
----------------------|----------------------------|----------------------|
----------------------|----------------------------|----------------------|
--7g9~----------------|-----7----5----4~-----------|----------------------|
----------------------|---------------------5S--7--|--L----------L--------|
--5g7-----------------|-----5----3----2------------|----------------------|
----------------------|---------------------3S--5--|--Lbr--------L--------|


  W                     W                     W                  
-------------------|----------------------|---------------------|
-------------------|----------------------|---------------------|
-------------------|--7g9~----------------|--12~----------------|
-------------------|----------------------|---------------------|
-------------------|--5g7-----------------|--10-----------------|
-------------------|----------------------|---------------------|


   E  S  E  S  H         E     W                    W                  
----------------------------|-------------------|---------------------|
----------------------------|-------------------|--15~----------------|
--14----16----17~-----------|-------------------|---------------------|
----------------------------|-------------------|--12-----------------|
--12----14----15------------|-------------------|---------------------|
----------------------------|-------------------|---------------------|


   W                     E    S E   E    H         S  
---------------------|-------------------------------|
--12~----------------|--12S--13----12S--10~----------|
---------------------|-------------------------------|
---9-----------------|---9S--10-----9S---7-----------|
---------------------|-------------------------------|
---------------------|-------------------------------|


      Q     H         Q           Q     S E  E  S Q     E     W                 
---------------------------|-------------------------------|-------------------|
---------------------------|-------------------------------|-------------------|
---------------------------|-------------------------------|-------------------|
--12g14----12~-------------|--12g14----10----9----7~----L--|-------------------|
---------------------------|-------------------------------|-------------------|
--10g12----10--------------|--10g12-----8----7----5~----L--|-------------------|


  W                    E  E  S E  S Q     Q       Q    S  S  E   Q    Q     
--------------------|--------------------------|---------------------------|
--------------------|--------------------------|---------------------------|
--9~----------------|-----7----5----4~---------|--5----4S-5S-4S--2---------|
--------------------|--------------------------|---------------------------|
--7-----------------|-----5----3----2----------|--3----2S-3S-2S--0---------|
--------------------|--------------------------|----------------------0----|


  W                     W                     W                  
-------------------|----------------------|---------------------|
-------------------|----------------------|---------------------|
-------------------|--7g9~----------------|--12~----------------|
-------------------|----------------------|---------------------|
-------------------|--5g7-----------------|--10-----------------|
-------------------|----------------------|---------------------|


   E  S  E  S  H         E     W                    W                  
----------------------------|-------------------|---------------------|
----------------------------|-------------------|--15~----------------|
--14----16----17~-----------|-------------------|---------------------|
----------------------------|-------------------|--12-----------------|
--12----14----15------------|-------------------|---------------------|
----------------------------|-------------------|---------------------|


   W                     E    S E   E    H         S  
---------------------|-------------------------------|
--12~----------------|--12S--13----12S--10~----------|
---------------------|-------------------------------|
---9-----------------|---9S--10-----9S---7-----------|
---------------------|-------------------------------|
---------------------|-------------------------------|


      Q     H         Q           Q     S E  E  S Q     E   
---------------------------|-------------------------------|
---------------------------|-------------------------------|
---------------------------|-------------------------------|
--12g14----12~-------------|--12g14----10----9----7~----L--|
---------------------------|-------------------------------|
--10g12----10--------------|--10g12-----8----7----5~----L--|


  H        E   E   E   E      Q.       S  S  S  Q      S  S  S  
--------------------------|-----------12-----------------------|
------------------12--13--|--15~---------15-13-12~----------12-|
--------------14----------|------------------------------14----|
--------------------------|---------------------------14-------|
--------------------------|------------------------------------|
--------------------------|------------------------------------|


      E    E    E   S  S     S   S  Q      S  S  
------------------------------------------------|
--12g13~--13~--15--13-12-12g13p-12-----------12-|
-----------------------------------14~----14----|
------------------------------------------------|
------------------------------------------------|
------------------------------------------------|


   Q      S  S  S   Q     E   S  S  S     Q     S     S   S  S   H          
---------12-13-17p-15~----------------|------------------------------------|
--15~------------------------------12-|--13----12--------------------------|
--------------------------------14----|-----------12g14p-12----------------|
-----------------------------14-------|---------------------15p-14~--------|
--------------------------------------|------------------------------------|
--------------------------------------|------------------------------------|


  W                     W                    E  E  S E  S Q     E   E   
-------------------|----------------------|----------------------------|
-------------------|----------------------|----------------------------|
-------------------|--7g9~----------------|-----7----5----4~-----------|
-------------------|----------------------|---------------------5S--7--|
-------------------|--5g7-----------------|-----5----3----2------------|
-------------------|----------------------|---------------------3S--5--|


  H          H           W                     W                  
----------------------|-------------------|----------------------|
----------------------|-------------------|----------------------|
----------------------|-------------------|--7g9~----------------|
--L----------L--------|-------------------|----------------------|
----------------------|-------------------|--5g7-----------------|
--Lbr--------L--------|-------------------|----------------------|


   W                     E  S  E  S  H         E     W                 
---------------------|----------------------------|-------------------|
---------------------|----------------------------|-------------------|
--12~----------------|--14----16----17~-----------|-------------------|
---------------------|----------------------------|-------------------|
--10-----------------|--12----14----15------------|-------------------|
---------------------|----------------------------|-------------------|


   W                     W                     E    S E   E    H         S  
---------------------|---------------------|-------------------------------|
--15~----------------|--12~----------------|--12S--13----12S--10~----------|
---------------------|---------------------|-------------------------------|
--12-----------------|---9-----------------|---9S--10-----9S---7-----------|
---------------------|---------------------|-------------------------------|
---------------------|---------------------|-------------------------------|


      Q     H         Q           Q     S E  E  S Q     E   
---------------------------|-------------------------------|
---------------------------|-------------------------------|
---------------------------|-------------------------------|
--12g14----12~-------------|--12g14----10----9----7~----L--|
---------------------------|-------------------------------|
--10g12----10--------------|--10g12-----8----7----5~----L--|


      Q     H         Q           Q     S E  E  S Q     E          
---------------------------|-------------------------------|-----||
---------------------------|-------------------------------|-----||
---------------------------|-------------------------------|-----||
--12g14----12~-------------|--12g14----10----9----7~----L--|-----||
---------------------------|-------------------------------|-----||
--10g12----10--------------|--10g12-----8----7----5~----L--|-----||



Rhythm

For the intro there's just an E and G chord strummed alternately.
I figure the fingering to be something like this . .


     ^        ^           ^        ^           ^        ^         
     H        H           H        H           H        H         
E||--0--------3--------|--0--------3--------|--0--------3--------|
B||--0--------0--------|--0--------0--------|--0--------0--------|
G||--0--------0--------|--0--------0--------|--0--------0--------|
D||--2--------0--------|--2--------0--------|--2--------0--------|
A||--2--------2--------|--2--------2--------|--2--------2--------|
E||--0--------3--------|--0--------3--------|--0--------3--------|


This moves to some arpeggiated power chords . . .

  E  E  E  E  E  E  E  E     E  E  E  E    E  E  E  E   
|--------------5-----------|----------------------------|
|--------5--------5-----5--|--------5-------------3-----|
|-----5-----5--------5-----|-----5-----5-------4-----4--|
|--7-----------------------|--7-----------7g5-----------|
|--------------------------|----------------------------|
|--------------------------|----------------------------|


    E  E  E  E  E  E  E  E     E  E  E  E  E  E  E  E   
----------------5-----------|--------------5-----------|
----------5--------5-----5--|--------5--------5-----5--|
-------5-----5--------5-----|-----5-----5--------5-----|
--5g7-----------------------|--7-----------------------|
----------------------------|--------------------------|
----------------------------|--------------------------|


  E  E  E  E  E  E  E  E       E  E  E  E  E  E  E  E   
--------------5-----------|----------------3-----------|
--------5--------5-----5--|----------3--------3-----3--|
-----5-----5--------5-----|-------4-----4--------4-----|
--7-----------------------|--7g5-----------------------|
--------------------------|----------------------------|
--------------------------|----------------------------|


    E  E  E  E  E  E  E  E     E  E  E  E  E  E  E  E   
----------------5-----------|--------------5-----------|
----------5--------5-----5--|--------5--------5-----5--|
-------5-----5--------5-----|-----5-----5--------5-----|
--5g7-----------------------|--7-----------------------|
----------------------------|--------------------------|
----------------------------|--------------------------|


    E  E  E  E  E  E  E  E     E  E  E  E  E  E  E  E   
----------------3-----------|--------------0-----------|
----------3--------3-----3--|-----------------0-----0--|
-------4-----4--------4-----|--------------------1-----|
--7g5-----------------------|--------2-----------------|
----------------------------|-----2-----2--------------|
----------------------------|--0-----------------------|


  E  E  E  E  E  E  E  E     E  E  E  E  E  E  E  E   
--------------------------|--------------------------|
--------------5-----------|--------------7-----------|
-----------------5-----5--|--------7--------7-----7--|
--------7-----------7-----|-----7-----7--------7-----|
-----7-----7--------------|--5-----------------------|
--5-----------------------|--------------------------|


  E  E  E  E  E  E  E  E     E  E  E  E  E  E  E  E   
--------------------------|--------------------------|
--------------5-----------|--------------5-----------|
-----------------5-----5--|-----------------5-----5--|
--------7-----------7-----|--------7-----------7-----|
-----7-----7--------------|-----7-----7--------------|
--5-----------------------|--5-----------------------|


  E  E  E  E  E  E  E  E     E  E  E  E    E  E  E  E   
--------------5-----------|----------------------------|
--------5--------5-----5--|--------5-------------3-----|
-----5-----5--------5-----|-----5-----5-------4-----4--|
--7-----------------------|--7-----------7g5-----------|
--------------------------|----------------------------|
--------------------------|----------------------------|


    E  E  E  E  E  E  E  E     E  E  E  E  E  E  E  E   
----------------5-----------|--------------5-----------|
----------5--------5-----5--|--------5--------5-----5--|
-------5-----5--------5-----|-----5-----5--------5-----|
--5g7-----------------------|--7-----------------------|
----------------------------|--------------------------|
----------------------------|--------------------------|


  E  E  E  E  E  E  E  E       E  E  E  E  E  E  E  E   
--------------5-----------|----------------3-----------|
--------5--------5-----5--|----------3--------3-----3--|
-----5-----5--------5-----|-------4-----4--------4-----|
--7-----------------------|--7g5-----------------------|
--------------------------|----------------------------|
--------------------------|----------------------------|


  E  E  E  E  E  E  E  E     E  E  E  E  E  E  E  E   
--------------------------|--------------5-----------|
--------5-----5--------5--|--------5--------5-----5--|
-----5-----5-----5--5-----|-----5-----5--------5-----|
--7-----------------------|--7-----------------------|
--------------------------|--------------------------|
--------------------------|--------------------------|


    E  E  E  E  E  E  E  E     E  E  E  E  E  E  E  E   
----------------3-----------|-----------------------0--|
----------3--------3-----3--|--------------------------|
-------4-----4--------4-----|--------------------------|
--7g5-----------------------|--------2-----2-----2-----|
----------------------------|-----2-----2-----2--------|
----------------------------|--0-----------------------|


  E  E  E  E  E  E  E  E     E  E  E  E  E  E  E  E   
--------------------------|--------------------------|
--------------5-----------|--------------7-----------|
-----------------5-----5--|--------7--------7-----7--|
--------7-----------7-----|-----7-----7--------7-----|
-----7-----7--------------|--5-----------------------|
--5-----------------------|--------------------------|


                                                           
  E  E  E  E  E  E  E  E     E  E  E  E  E  E  E  E        
--------------------------|--------------------------|
--------------5-----------|--------------5-----------|
-----------------5-----5--|-----------------5-----5--|
--------7-----------7-----|--------7-----------7-----|
-----7-----7--------------|-----7-----7--------------|
--5-----------------------|--5-----------------------|

there is a kind of bridge like part . . .

   Q    Q    Q    Q     
|--3----3----0----0----|
|--3----3----0----0----|
|--4----4----1----1----|
|--5----5----2----2----|
|--5----5----2----2----|
|--3----3----0----0----|


  ^    ^    ^    ^       ^    ^    ^    ^       ^    ^    ^         
  Q    Q    Q    Q       Q    Q    Q    Q       Q    Q    H         
--5----5----5----5----|--3----3----3----3----|--5----5----0--------|
--5----5----5----5----|--3----3----3----3----|--5----5----0--------|
--5----5----5----5----|--4----4----4----4----|--5----5----1--------|
--7----7----7----7----|--5----5----3----3----|--7----7----2--------|
--7----7----7----7----|--5----5----5----5----|--7----7----2--------|
--5----5----5----5----|--3----3----3----3----|--5----5----0--------|

then after that you're back to the arpeggiated bit till the end of the song 

cheers 
clear and blue






Duration Legend
---------------
W - whole
H - half
Q - quarter
E - 8th
S - 16th
T - 32nd
X - 64th
. - note dotted
|-n-|  - n-tuplets


Tablature Legend
----------------
L - tied note
x - dead note
g - grace note
(n) - ghost note
> - accentuded note
NH - natural harmonic
AH - artificial harmonic
TH - tapped harmonic
SH - semi harmonic
PH - pitch harmonic
h - hammer on
p - pull off
b - bend
br - bendRelease
pb - preBend
pbr - preBendRelease
brb - bendReleaseBend
\n/ - tremolo bar dip
\n - tremolo bar dive
-/n - tremolo bar Release up
/n\ - tremolo bar inverted dip
/n - tremolo bar return
-\n - tremolo bar Release down
S - shift slide
s - legato slide
/ -  slide into from below or out of upwards
\ -  slide into from above or out of downwards
~ - vibrato
W - wide vibrato
tr - trill
TP - tremolo picking
T - tapping
S - slap
P - pop
< - fade in
^ - brush up
v - brush down
Tap to rate this tab
# A B C D E F G H I J K L M N O P Q R S T U V W X Y Z