Guitaretab - guitar tabs
Song name
# A B C D E F G H I J K L M N O P Q R S T U V W X Y Z

Peter Griffen - Rock Lobster tab

Artist: Peter Griffen
Song: Rock Lobster

I split this song into two guitars but you can play it with one if you
want.

Guitar: 1 
E||-----------------------------------------------|x8
B||-----------------------------------------------|
G||-----------------------------------------------|
D||--------------------6-4-6-4--------------------|
A||--3----5----6----5-----------------------------|
E||-----------------------------------------------|

[ Tab from: http://www.guitaretab.com/p/peter-griffen/181071.html ]
Guitar: 2
e|------------------------------------------------|x8
B|------------------------00----------------------|
G|-----5-----5------------00----------------------|
D|-----5-----5------------00----------------------|
A|--3-----6---------------------------------------|
E|------------------------------------------------|


Guitar: 1
e|------------------------------------------------|x3
B|-8--7--8--7--4-4--------------------------------|
G|------------------1-0-1-0-----------------------|
D|-5--4--5--4--1-1--------------------------------|
A|------------------------------------------------|
E|------------------------------------------------|



Guitar: 2
e|------------------------------------------------|x3
B|------------------------------------------------|
G|-5-x-x-5-x-x-8-x-x-8-x-x------------------------|
D|-5-x-x-5-x-x-8-x-x-8-x-x-5-x-x-5-x-x-2-x-x------|
A|-3-x-x-3-x-x-6-x-x-6-x-x-5-x-x-5-x-x-2-x-x------|
E|-------------------------3-x-x-3-x-x-0-x-x------|
Listen to the song to get the right pattern of the muting.
 
Please Rate and let me know what you think.
Related for Rock Lobster tab