Song name
# A B C D E F G H I J K L M N O P Q R S T U V W X Y Z

Peter Griffen - Ding Fries Are Done tab

why not?

ding fries are done

|---------------|---------------|---------------|---------------|
|---------------|---------------|---------------|---------------|
|-12--11h12-9---|-12--11h12-9---|-12--11h12-9---|-12--11h12-9---|
|---------------|---------------|---------------|---------------|
|---------------|---------------|---------------|---------------|
|---------------|---------------|---------------|---------------|

i gotta run 
|---------------|---------------|---------------|---------------||
|-12--10h12-8---|-12--10h12-8---|-12--10h12-8---|-12--10h12-8---||
|---------------|---------------|---------------|---------------||
|---------------|---------------|---------------|---------------||
|---------------|---------------|---------------|---------------||
|---------------|---------------|---------------|---------------||


I work at burger king making flame broiled whoppers I wear paper hats

|-12--12-12-10----|-----------------|-----------------|-----------|
|--------------13-|-12--12-12-10----|-10--10-10-12-10-|-----------|
|-----------------|--------------12-|-----------------|-9--9-9-9--|
|-----------------|-----------------|-----------------|-----------|
|-----------------|-----------------|-----------------|-----------|
|-----------------|-----------------|-----------------|-----------|

would you like an apple pie with that?

|----------------|-----------------|
|--------------8-|-10-H12P-10--8---|
|-------8-9-11---|-----------------|
|-9--11----------|-----------------|
|----------------|-----------------|
|----------------|-----------------|


Tap to rate this tab
 
# A B C D E F G H I J K L M N O P Q R S T U V W X Y Z