Song name
# A B C D E F G H I J K L M N O P Q R S T U V W X Y Z

Peter Griffen - Rock Lobster tab

----------------------------------------------------------------------------
			 Rock Lobster- Peter Griffin
----------------------------------------------------------------------------
Tabbed by: Joel Keane (jk41)
Email:

Tuning:standard
Classic family guy
The opens arent 100% accurate, just there to give you an idea


Cleveland, sit down, i want to sing a little song that kept me goin when
i had troubles
e|--------------------------------------------------------------------------|
B|---------------------00------------------------00----------------------00-|
G|---0-----0---1---1-0-00------0-----0---1---1-0-00----0-----0---1---1-0-00-|
D|---0-0-1-0-0---3-------------0-0-1-0-0---3-----------0-0-1-0-0---3--------|
A|-3-----------------------5-3----------------------5-3---------------------|
E|--------------------------------------------------------------------------|
                                                     we were at the beach
e|---------------------------------------------------------------------------|
B|---------------------00------------------------00-----------------------00-|
G|---0-----0---1---1-0-00------0-----0---1---1-0-00-----0-----0---1---1-0-00-|
D|---0-0-1-0-0---3-------------0-0-1-0-0---3------------0-0-1-0-0---3--------|
A|5-3----------------------5-3-----------------------5-3---------------------|
E|---------------------------------------------------------------------------|
everybody had matching     somebody went under       and there they saw
towels                     a dock                    a rock
e|--------------------------------------------------------------------------|
B|---------------------00-----------------------00--------------------------|
G|---0-----0---1---1-0-00-----0-----0---1---1-0-00----12-00-11-00-12-00-11--|
D|---0-0-1-0-0---3------------0-0-1-0-0---3--------------00----00----00-----|
A|5-3----------------------5-3------------------------10----9-----10----9---|
E|--------------------------------------------------------------------------|
but it wasnt a rock        it was a rock lobster

e|--------------------------------------------------------------------------|
B|---------------------00000------------------------------------------------|
G|-00-8-8--11-9-11-12--00000----------12-00-11-00-12-00-11-00-8-8--11-9-11--|
D|-00------------------00000-------------00----00----00----00---------------|
A|----6-6--9--7-9--10-----------------10----9-----10----9-----6-6--9--7-9---|
E|--------------------------------------------------------------------------|
                           Rock lobster
e|--------------------------------------------------------------------------|
B|-----00000------------------------------------------------------00000-----|
G|-12--00000-------------12-00-11-00-12-00-11-00-8-8--11-9-11-12--00000-----|
D|-----00000----------------00----00----00----00------------------00000-----|
A|-10--------------------10----9-----10----9-----6-6--9--7-9--10------------|
E|--------------------------------------------------------------------------|
            Rock lobster                                               ROCK
e|--------------------------------------------------------------------------|
B|--------------------------------------------------------------------------|
G|-----12-00-11-00-12-00-11-00-8-8--11-9-11-12------------------------------|
D|--------00----00----00----00----------------------------------------------|
A|-----10----9-----10----9-----6-6--9--7-9--10------------------------------|
E|--------------------------------------------------------------------------|
LOBSTER                                       hehehehehe youre gunna be ok


************************************

| /   slide up
| \   slide down
| h   hammer-on
| p   pull-off
| ~   vibrato
| +   harmonic
| x   Mute note
| b   Bend
| pb  Pre-bend
| br  Bend release
| pbr Pre-bend release
| brb Bend release bend

************************************
Tap to rate this tab
 
# A B C D E F G H I J K L M N O P Q R S T U V W X Y Z