Song name
# A B C D E F G H I J K L M N O P Q R S T U V W X Y Z

Peter Griffen - Rock Lobster tab

I feel it's two guitars despite the other tabs doing it with one... but I'll do the 'one 
guitar version' and what I think is the real version.

ONE GUITAR

e|-----3-----3---------------111---------------------|
B|-----4-----4---------------000---------------------|
G|-----5-----3---------------------------------------|
D|-----5-----5---6-----6---5-000---------------------|
A|--3-----6---------6--------222---------------------|
E|---------------------------333----------repeat 8x--|


e|---------------------------------------------------|
B|---------------------------------------------------|
G|--12--11--12--11---------11-------11--12-----------|
D|-------------------13--------13--------------------|
A|--10--9---10---9---------9---------9--10-----------|
E|-------------------11--------------------Repeat 4x-|


TWO GUITARS

Guitar 1

E|---------------------------------------------------|
B|---------------------------------------------------|
G|---------------------------------------------------|
D|---------------6-----6--5--------------------------|
A|--3--5--6---------6--------------------------------|
E|----------------------------------------repeat 8x--|


Guitar 2

e|-----3-----3---------------111---------------------|
B|-----4-----4---------------000---------------------|
G|-----5-----3---------------------------------------|
D|-----5-----5---------------000---------------------|
A|--3-----6------------------222---------------------|
E|---------------------------333----------repeat 8x--|

Guitar 1

e|---------------------------------------------------|
B|---------------------------------------------------|
G|--12--11--12--11---------11-------11--12-----------|
D|-------------------13--------13--------------------|
A|--10--9---10---9---------9---------9--10-----------|
E|-------------------11--------------------Repeat 4x-|


Guitar 2

e|-----3-----3---------------111---------------------|
B|-----4-----4----4----------000---------------------|
G|-----5-----3----3----------------------------------|
D|-----5-----5----5----6-----000---------------------|
A|-----3-----3----6----6-----222---------------------|
E|-----------6---------4-----333----------repeat 4x--|

(ddu ddu dduddu dduddu dduddu)
Tap to rate this tab
# A B C D E F G H I J K L M N O P Q R S T U V W X Y Z