Song name
# A B C D E F G H I J K L M N O P Q R S T U V W X Y Z

Peter Griffen - Iraq Lobster tab

I don't know if it's right but it sounds right to me.
e|-0---------0-----------0-0-0-------------------------|
B|-0---------0-----------0-0-0-------------------------|
G|---------------3-2-3-2-------------------------------|
D|---0-2-3-2-------------------------------------------|
A|-----------------------------------------------------|
E|-----------------------------------------------------| x8

Chorus

e|-3-3-3-2-2-2-3-3-3-2-2-2-0-0-0-2-0-2-3-3-3-3---------|
B|-0-0-0-0-0-0-0-0-0-0-0-0-4-4-4-0-4-0-0-0-0-0---------|
G|-----------------------------------------------------|
D|-----------------------------------------------------|
A|-----------------------------------------------------|
E|-----------------------------------------------------| x3


| /  slide up
| \  slide down
| h  hammer-on
| p  pull-off
| ~  vibrato
| +  harmonic
| x  Mute note
Tap to rate this tab
# A B C D E F G H I J K L M N O P Q R S T U V W X Y Z