Song name
# A B C D E F G H I J K L M N O P Q R S T U V W X Y Z

Peter Ilyich Tchaikovsky - March tab

this is only my 2nd tab... hope u can figure it out, lol. There really isn't much of a 
then verse or anything like that it's just a song, but I will label what I think to be 
chorus and stuff.

Chorus
e/----------------------------------------------------------------------/e-|
B/-3--3-3-3-5--5--7--3--5----do that twice------------------------------/B-|
G/-4--------4-----4-----4-----------------------------------------------/G-|
D/----------------------------------------------------------------------/D-|
A/----------------------------------------------------------------------/A-|
E/----------------------------------------------------------------------/E-|

Verse 1
e/----------------------------------------------------------------------/e-|
B/----------------------------------------------------------------------/B-|
G/-5--7-5--4-2--0----4--5-4--2-0---------------2--0----5--4-2--0-7------/G-|
D/----------------4---------------4-2--4--2-1-------4------------4------/D-|
A/----------------------------------------------------------------------/A-|
E/----------------------------------------------------------------------/E-|

Chorus
e/----------------------------------------------------------------------/e-|
B/-3--3-3-3-5--5--7--3--5----do that twice------------------------------/B-|
G/-4--------4-----4-----4-----------------------------------------------/G-|
D/----------------------------------------------------------------------/D-|
A/----------------------------------------------------------------------/A-|
E/----------------------------------------------------------------------/E-|

Verse 2
e/----------------------------------------------------------------------/e---|
B/----------------------------------------------------------------------/B---|
G/-5--7-5--4-2--0----7--9-7--5-4--2-0--9--7-5--9-11--9-7--12--11-9--11-12-/G-|
D/----------------4-----------------------------------------------------/D---|
A/----------------------------------------------------------------------/A---|
E/----------------------------------------------------------------------/E---|

Bridge
e/----------------------------------------------------------------------/e-|
B/----------------------------------------------------------------------/B-|
G/-12--12--12--12--11--9------------------------------------------------/G-|
D/------------------------12--10--9--9--9--9--9--10--9--10--7--7--7--7--/D-|
A/----------------------------------------------------------------------/A-|
E/----------------------------------------------------------------------/E-|

e/----------------------------------------------------------------------/e-|
B/----------------------------------------------------------------------/B-|
G/----------------------------------------------------------------------/G-|
D/7--9--7--9------------------------------------------------------------/D-|
A/------------10--12--9--10--7:--9--6--9--------------------------------/A-|
E/----------------------------------------------------------------------/E-|

Then repeat Bridge except for everything past the ":". Then repeat it again and from the 
point finish the song with:

e/----------------------------------------------------------------------/e-|
B/----------------------------------------------------------------------/B-|
G/----------------------------------------------------------------------/G-|
D/--------------------------------------9-------------------------------/D-|
A/-------------------------------9--10----------------------------------/A-|
E/----------------------------------------------------------------------/E-|

that's it! e-mail me with any comments or corrections.
Tap to rate this tab
# A B C D E F G H I J K L M N O P Q R S T U V W X Y Z