Song name
# A B C D E F G H I J K L M N O P Q R S T U V W X Y Z

Peter Koelewijn - Kom Van Dat Dak Af tab

Artist:      Peter Koelewijn
Artist Link: http://www.peterkoelewijn.nl/
Song:        Kom van dat dak af
Time:        2:41
Instrument:  Guitar
Tuning:      Standard (E-A-D-G-B-E)


   hey,              hey,            hey!!!                   kom van dat

|-----------------|-----------------|-----------------|-----------------|
|-----------------|-----------------|-----------------|-----------------|
|-----------------|-----------------|-----------------|-----------------|
|-----------------|-----------------|-----------------|-----------------|
|-----------------|-----------------|-----------------|-----------------|
|-----------------|-----------------|-----------------|-----------------|
|-----------------|-----------------|-----------------|-----------------|


|=============================== REFREIN ===============================|

  dak af                  ik waarschuw niet meer        nee (6x) van dat

|-----------------|-----------------|-----------------|-----------------|
|-----------------|-----------------|-----------------|-----------------|
|-----------------|-----------------|-----------------|-----------------|
|-----------------|-----------------|-----------------|-----------------|
|-----------------|-----------------|-----------------|-----------------|
|-----5-5-3-3-5-5-|-----5-5-3-3-5-5-|-----5-5-3-3-5-5-|-----5-5-3-3-5-5-|
|-1-1-------------|-1-1-------------|-1-1-------------|-1-1-------------|
 

  dak af                 ik waarschuw niet meer               kom van dat

|-----------------|-----------------|-----------------|-----------------|
|-----------------|-----------------|-----------------|-----------------|
|-----------------|-----------------|-----------------|-----------------|
|-----------------|-----------------|-----------------|-----------------|
|-----5-5-3-3-5-5-|-----5-5-3-3-5-5-|-----------------|-----------------|
|-1-1-------------|-1-1-------------|-----5-5-3-3-5-5-|-----5-5-3-3-5-5-|
|-----------------|-----------------|-1-1-------------|-1-1-------------|


 dak af              dat was de laatste keer

|-----------------|-----------------|-----------------|-----------------|
|-----------------|-----------------|-----------------|-----------------|
|-----------------|-----------------|-----------------|-----------------|
|-----------------|-----------------|-----------------|---5-5-5-5-5-5-5-|
|-----7-7-5-5-7-7-|-----5-5-3-3-5-5-|-----------------|---5-5-5-5-5-5-5-|
|-3-3-------------|-1-1-------------|-----5-5-3-3-5-5-|---3-3-3-3-3-3-3-|
|-----------------|-----------------|-1-1-------------|-----------------|


|============================== COUPLET 1 ==============================|

 Jan Janssen zijn vrouw was een koorddanseres 
                      maar bij gebrek aan een touw klom ze op het bordes

  ^ PM| ^ PM| ^ PM  ^ PM| ^ PM| ^ PM  ^ PM| ^ PM| ^ PM  ^ PM| ^ PM| ^ PM
|-----------------|-----------------|-----------------|-----------------|
|-----------------|-----------------|-----------------|-----------------|
|-----------------|-----------------|-----------------|-----------------|
|-----------------|-----------------|-----------------|-----------------|
|-3-3-3-3-3-3-3-3-|-3-3-3-3-3-3-3-3-|-3-3-3-3-3-3-3-3-|-3-3-3-3-3-3-3-3-|
|-3-3-3-3-3-3-3-3-|-3-3-3-3-3-3-3-3-|-3-3-3-3-3-3-3-3-|-3-3-3-3-3-3-3-3-|
|-1-1-1-1-1-1-1-1-|-1-1-1-1-1-1-1-1-|-1-1-1-1-1-1-1-1-|-1-1-1-1-1-1-1-1-|


 het eten werd koud en Jan Janssen werd heet 
                     en in de straat weerklonk zijn kreet    kom van dat

  ^ PM| ^ PM| ^ PM  ^ PM| ^ PM| ^ PM  ^ PM------------| ^ 
|-----------------|-----------------|-----------------|-----------------|
|-----------------|-----------------|-----------------|-----------------|
|-----------------|-----------------|-----------------|-----------------|
|-3-3-3-3-3-3-3-3-|-3-3-3-3-3-3-3-3-|-5-5-5-5-5-5-5-5-|-5---------------|
|-3-3-3-3-3-3-3-3-|-3-3-3-3-3-3-3-3-|-5-5-5-5-5-5-5-5-|-5---------------|
|-1-1-1-1-1-1-1-1-|-1-1-1-1-1-1-1-1-|-3-3-3-3-3-3-3-3-|-3---------------|
|-----------------|-----------------|-----------------|-----------------|


|=============================== REFREIN ===============================|

|============================== COUPLET 2 ==============================|

 Jan Janssen werd kwaad, en zei: aan is de boot
                                kom van dat dak af of je gaat in de goot

  ^ PM| ^ PM| ^ PM  ^ PM| ^ PM| ^ PM  ^ PM| ^ PM| ^ PM  ^ PM| ^ PM| ^ PM
|-----------------|-----------------|-----------------|-----------------|
|-----------------|-----------------|-----------------|-----------------|
|-----------------|-----------------|-----------------|-----------------|
|-----------------|-----------------|-----------------|-----------------|
|-3-3-3-3-3-3-3-3-|-3-3-3-3-3-3-3-3-|-3-3-3-3-3-3-3-3-|-3-3-3-3-3-3-3-3-|
|-3-3-3-3-3-3-3-3-|-3-3-3-3-3-3-3-3-|-3-3-3-3-3-3-3-3-|-3-3-3-3-3-3-3-3-|
|-1-1-1-1-1-1-1-1-|-1-1-1-1-1-1-1-1-|-1-1-1-1-1-1-1-1-|-1-1-1-1-1-1-1-1-|


 maar zijn vrouw schrok zich wild en was ten einde raad
                                weerklonk het in de straat  kom van dat

  ^ PM| ^ PM| ^ PM  ^ PM| ^ PM| ^ PM  ^ PM------------| ^ 
|-----------------|-----------------|-----------------|-----------------|
|-----------------|-----------------|-----------------|-----------------|
|-----------------|-----------------|-----------------|-----------------|
|-3-3-3-3-3-3-3-3-|-3-3-3-3-3-3-3-3-|-5-5-5-5-5-5-5-5-|-5---------------|
|-3-3-3-3-3-3-3-3-|-3-3-3-3-3-3-3-3-|-5-5-5-5-5-5-5-5-|-5---------------|
|-1-1-1-1-1-1-1-1-|-1-1-1-1-1-1-1-1-|-3-3-3-3-3-3-3-3-|-3---------------|
|-----------------|-----------------|-----------------|-----------------|

|=============================== REFREIN ===============================|

|=============================== REFREIN ===============================|
               (geen zang, improvisatie in F pentatonisch)               

|============================== COUPLET 1 ==============================|

|=============================== REFREIN ===============================|

|========================== REFREIN (variant) ==========================|

  dak af                  oh, oh, oh van dat dak af              van dat

|-----------------|-----------------|-----------------|-----------------|
|-----------------|-----------------|-----------------|-----------------|
|-----------------|-----------------|-----------------|-----------------|
|-----------------|-----------------|-----------------|-----------------|
|-----------------|-----------------|-----------------|-----------------|
|-----5-5-3-3-5-5-|-----5-5-3-3-5-5-|-----5-5-3-3-5-5-|-----5-5-3-3-5-5-|
|-1-1-------------|-1-1-------------|-1-1-------------|-1-1-------------|
 

  dak af                 hey! kom van dat dak af!                van dat

|-----------------|-----------------|-----------------|-----------------|
|-----------------|-----------------|-----------------|-----------------|
|-----------------|-----------------|-----------------|-----------------|
|-----------------|-----------------|-----------------|-----------------|
|-----5-5-3-3-5-5-|-----5-5-3-3-5-5-|-----------------|-----------------|
|-1-1-------------|-1-1-------------|-----5-5-3-3-5-5-|-----5-5-3-3-5-5-|
|-----------------|-----------------|-1-1-------------|-1-1-------------|


 dak af              ik waarschuw niet meer!

|-----------------|-----------------|-----------------|-----------------|
|-----------------|-----------------|-----------------|-----------------|
|-----------------|-----------------|-----------------|-----------------|
|-----------------|-3---------------|-----------------|-----------------|
|-----7-7-5-5-7-7-|-3---------------|---3-3-3-3-3-3-3-|-3---------------|
|-3-3-------------|-1---------------|---3-3-3-3-3-3-3-|-3---------------|
|-----------------|-----------------|---1-1-1-1-1-1-1-|-1---------------|
Tap to rate this tab
 
# A B C D E F G H I J K L M N O P Q R S T U V W X Y Z