Song name
# A B C D E F G H I J K L M N O P Q R S T U V W X Y Z

Peter Lustig - Lwenzahn Theme tab

Hi! These are the tabs from L÷wenzahn. Have fun!!!

E|--------------------------------------------------------------------------|
B|--------------------------------------------------------------------------|
G|-----0-----------------------0-----------------5--3--2--0--------0--------|
D|--------3--2--0--------0--------3--2--0--------------------0--2-----------|
A|-----------------0--2--------------------0--3-----------------------------|
E|--3-----------------------3-----------------------------------------------|


E|--------------------------------------------------------------------------|
B|--------------------------------------------------------------------------|
G|-----5--3--2--0--0--2--4--4--------------4--2--0--------------------------|
D|-----------------------------5--3--2--0-----------0--0--5--3--2--0--------|
A|--3-----------------------------------------------------------------------|
E|-----------------------3--------------------------3-----------------------|


                                           F              C           A
E|--------------------------------------0--1--1--1--0--------------------0--|
B|-----------------------3-----------3-----1-----------3--1--1-----------2--|
G|--0--2--4--4--4--2--0--------------------2--------------0-----0--2--3--2--|
D|--------------5-----------3--2--0--------3--------------2--------------2--|
A|-----------------------------------------3--------------3--------------0--|
E|--------3--------------------------------1--------------------------------|


Now you can play it again and again.





                                                                musicstyler^^
Tap to rate this tab
# A B C D E F G H I J K L M N O P Q R S T U V W X Y Z