Guitaretab - guitar tabs
Song name
# A B C D E F G H I J K L M N O P Q R S T U V W X Y Z

Peter Lustig - Lwenzahn Theme tab

Part1:
|----------------------------------------------------------------|
|----------------------------------------------------------------|
|-----0---------------------0------------------------------------|
|--------3--2--0-----0---------3--2--0-----0---------------------|
|-----------------2---------------------2------------------------|
|--3---------------------3---------------------------------------|


Part2:

|----------------------------------------------------------------|
|--3-------------------3-----------------------------------------|
|-----3--2--0-----0-------3--2--0-----0--------------------------|
|--------------2-------------------2-----------------------------|
|--3-------------------3-----------------------------------------|
|----------------------------------------------------------------|
[ Tab from: http://www.guitaretab.com/p/peter-lustig/76273.html ]
Part3:
|----------------------------------------------------------------|
|---------12--12-------------------------------------------------|
|--12/14----------0-----------14/12----------0-------------------|
|--------------------3--2--0---------12--12-----3--2--0----------|
|----------------------------------------------------------------|
|----------------------------------------------------------------|

Part4:
|----------------------------------------------------------------|
|---------12--12--12---------------------12--12--12----------15--|
|--12/14--------------14--12------12/14--------------14--12------|
|-----------------------------12---------------------------------|
|----------------------------------------------------------------|
|----------------------------------------------------------------|


Part5:

|------12--13--13--13p12-----------------------------------------|
|--15---------------------15--13--13-----------------------------|
|-------------------------------------12--14--15--14-------------|
|----------------------------------------------------------------|
|-----------------------------------------------------17---------|
|---------------------------------------------------------17-----|