Song name
# A B C D E F G H I J K L M N O P Q R S T U V W X Y Z

Peter Maffay - Nessaja tab

-----------------------------------------------------------------------
                             NESSAJA - Peter Maffay
-----------------------------------------------------------------------
Tabbed by: JW
E-mail: basis2000@emailn.de

Tuning: Standard

e---------------------------------------------------------------------|
B----5-3-5-3-5b6-3---8-6p5-6\3----------------------------------------|
G--5---------------5-----------5-5------------------------------------|
D---------------------------------------------------------------------|
A---------------------------------------------------------------------|
E---------------------------------------------------------------------|

e---------------------------------------------------------------------|
B----5-3-5-3-5b6-3---8-6p5-6\3----------------------------------------|
G--5---------------5-----------5-5------------------------------------|
D---------------------------------------------------------------------|
A---------------------------------------------------------------------|
E---------------------------------------------------------------------|

e--------------12------------------12---------------------------------|
B--14-14-14b15----12---14-14-14b15----12------------------------------|
G----------------------------------------14---------------------------|
D---------------------------------------------------------------------|
A---------------------------------------------------------------------|
E---------------------------------------------------------------------|

e---------------------------------------------------------------------|
B--------------14-14/15-12--------------------------------------------|
G--11h14-11h14-------------14-14---11h14-14-12p11----11----11----11---|
D-------------------------------------------------14----12----14----12|
A---------------------------------------------------------------------|
E---------------------------------------------------------------------|

***********************************************************************

| /   slide up
| \   slide down
| h   hammer-on
| p   pull-off
| ~   vibrato
| +   harmonic
| x   Mute note
| b   Bend
| pb  Pre-bend
| br  Bend release
| pbr Pre-bend release
| brb Bend release bend

***********************************************************************
Tap to rate this tab
 
# A B C D E F G H I J K L M N O P Q R S T U V W X Y Z