Song name
# A B C D E F G H I J K L M N O P Q R S T U V W X Y Z

Peter Maffay - Nessaja tab

-----------------------------------------------------------------------
                             NESSAJA - Peter Maffay
-----------------------------------------------------------------------
Tabbed by: JW
E-mail: basis2000@emailn.de

Tuning: Standard

e---------------------------------------------------------------------|
B----7-5-7-5-7-7b8-5---10-8p7-8-7\5-----------------------------------|
G--7-----------------7---------------7-7------------------------------|
D---------------------------------------------------------------------|
A---------------------------------------------------------------------|
E---------------------------------------------------------------------|

e---------------------------------------------------------------------|
B----7-5-7-5-7-7b8-5---10-8p7-8-7\5-----------------------------------|
G--7-----------------7---------------7-7------------------------------|
D---------------------------------------------------------------------|
A---------------------------------------------------------------------|
E---------------------------------------------------------------------|

e-----------------12---------------------12---------------------------|
B--14-14-14-14b15----12---14-14-14-14b15----12------------------------|
G----------------------------------------------14---------------------|
D---------------------------------------------------------------------|
A---------------------------------------------------------------------|
E---------------------------------------------------------------------|

e---------------------------------------------------------------------|
B--------------14-14/15-12--------------------------------------------|
G--11h14-11h14-------------14-14---11h14-14-12p11----11----11----11---|
D-------------------------------------------------14----12----14----12|
A---------------------------------------------------------------------|
E---------------------------------------------------------------------|

e---------------------------------------------------------------------|
B----7-5-7-5-7-7b8-5---10-8p7-8-7\5-----------------------------------|
G--7-----------------7---------------7-7------------------------------|
D---------------------------------------------------------------------|
A---------------------------------------------------------------------|
E---------------------------------------------------------------------|

e---------------------------------------------------------------------|
B----7-5-7-5-7-7b8-5---10-8p7-8-7\5-----------------------------------|
G--7-----------------7---------------7-7------------------------------|
D---------------------------------------------------------------------|
A---------------------------------------------------------------------|
E---------------------------------------------------------------------|

e-----------------12---------------------12---------------------------|
B--14-14-14-14b15----12---14-14-14-14b15----12------------------------|
G----------------------------------------------14---------------------|
D---------------------------------------------------------------------|
A---------------------------------------------------------------------|
E---------------------------------------------------------------------|

e---------------------------------------------------------------------|
B--------------14-14/15-12--------------------------------------------|
G--11h14-11h14-------------14-14---11h14-14-12p11----11----11----11---|
D-------------------------------------------------14----12----14----12|
A---------------------------------------------------------------------|
E---------------------------------------------------------------------|

e---------------------------------------------------------------------|
B----9-7-9-7-9-9b10-7---12-10p9-10-9\7--------------------------------|
G--9------------------9----------------9-9----------------------------|
D---------------------------------------------------------------------|
A---------------------------------------------------------------------|
E---------------------------------------------------------------------|

e---------------------------------------------------------------------|
B----9-7-9-7-9-9b10-7---12-10p9-10-9\7--------------------------------|
G--9------------------9----------------9-9----------------------------|
D---------------------------------------------------------------------|
A---------------------------------------------------------------------|
E---------------------------------------------------------------------|

e-----------------12---------------------12---------------------------|
B--14-14-14-14b15----12---14-14-14-14b15----12------------------------|
G----------------------------------------------14---------------------|
D---------------------------------------------------------------------|
A---------------------------------------------------------------------|
E---------------------------------------------------------------------|

e---------------------------------------------------------------------|
B--------------14-14/15-12--------------------------------------------|
G--11h14-11h14-------------14-14---11h14-14-12p11----11----11----11---|
D-------------------------------------------------14----12----14----12|
A---------------------------------------------------------------------|
E---------------------------------------------------------------------|

e---------------------------------------------------------------------|
B----9-7-9-7-9-9b10-7---12-10p9-10-9\7--------------------------------|
G--9------------------9----------------9-9----------------------------|
D---------------------------------------------------------------------|
A---------------------------------------------------------------------|
E---------------------------------------------------------------------|

e---------------------------------------------------------------------|
B----9-7-9-7-9-9b10-7---12-10p9-10-9\7--------------------------------|
G--9------------------9----------------9-9----------------------------|
D---------------------------------------------------------------------|
A---------------------------------------------------------------------|
E---------------------------------------------------------------------|

e-----------------14---------------------14---------------------------|
B--16-16-16-16b17----14---16-16-16-16b17----14------------------------|
G----------------------------------------------16---------------------|
D---------------------------------------------------------------------|
A---------------------------------------------------------------------|
E---------------------------------------------------------------------|

e---------------------------------------------------------------------|
B--------------16-16/17-14--------------------------------------------|
G--13h16-13h16-------------16-16---13h16-16-14p13----13----13----13---|
D-------------------------------------------------16----14----16----14|
A---------------------------------------------------------------------|
E---------------------------------------------------------------------|

***********************************************************************

| /   slide up
| \   slide down
| h   hammer-on
| p   pull-off
| ~   vibrato
| +   harmonic
| x   Mute note
| b   Bend
| pb  Pre-bend
| br  Bend release
| pbr Pre-bend release
| brb Bend release bend

***********************************************************************
Tap to rate this tab
# A B C D E F G H I J K L M N O P Q R S T U V W X Y Z