Song name
# A B C D E F G H I J K L M N O P Q R S T U V W X Y Z

Peter Mcconnel - Brutal Legend - Spirit Of Bladehenge tab

Brutal Legend - Spirit of Bladehange

****************************************************************************
\m/ HELL YEAH| \m/

I tabbed this by ear as there was no accurate tab on the net.
This tune should be played 1/2 step down,
so all the notes should be +1/2 tone to sound exact.
So, the 4 D# in the intro should be played on the 6th string,
but this is no big deal.

****************************************************************************

INTRO
e|-------------------------------------------------|
b|-------------------------------------------------|
g|-------------------------------------------------|
d|---------------------------------0---0---0---0---|
a|-1-0-1---0-----1-0-1-----------------------------|
E|-------3-------------3--3/5-1--------------------|

RIFF 1
e|----------------------------------------------------|
b|-------10----------11----------10----10-------------|
g|----10----10----10----10----10----10----10--9--10---|
d|-12----------12----------12-------------------------|
a|----------------------------------------------------|
E|----------------------------------------------------|

----------------------------------------------------|
---------------------------------------8------------|
---7---7---9--10---10---9---7---9----9---10-------9-|
-----8------------8---------------10----------10----|
----------------------------------------------------|
----------------------------------------------------|



RIFF 2
e|------------------------------------------------|
b|-------10----------11------------13----15-------|
g|----10----10----10----10------12----12----14----|
d|-12----------12---------12/14----------------15-|
a|------------------------------------------------|
E|------------------------------------------------|

-----------------------------------------|
----------------------------------8------|
-----------7-9-10---10-9-7-9----9---10---|
-14-12---8--------8----------10----------|
-----------------------------------------|
-----------------------------------------|


RIFF 3
e|----------------------------------------|
b|------6-------6-------6---6----6--------|
g|----7---7---7---7---7---7----7---7------|
d|--8-------8-------8----------------8/10-|
a|----------------------------------------|
E|----------------------------------------|

---------------------------------------------------------|
-----8--------8--------8----8----8-----10---10---10--10--|
---9---9----9---9----9---9-----9----9-----9----9----9----|
-10------10-------10-------------------------------------|
---------------------------------------------------------|
---------------------------------------------------------|


RIFF 1 (identical)
e|----------------------------------------------------|
b|-------10----------11----------10----10-------------|
g|----10----10----10----10----10----10----10--9--10---|
d|-12----------12----------12-------------------------|
a|----------------------------------------------------|
E|----------------------------------------------------|

----------------------------------------------------|
---------------------------------------8------------|
---7---7---9--10---10---9---7---9----9---10-------9-|
-----8------------8---------------10----------10----|
----------------------------------------------------|
----------------------------------------------------|


RIFF 2 (variation, shorter)
e|-------------------------------|
b|-------------10----------11----|
g|----------10----10----10-------|
d|-------12----------12----------|
a|-------------------------------|
E|-------------------------------|

RIFF 1 (identical)
e|----------------------------------------------------|
b|-------10----------11----------10----10-------------|
g|----10----10----10----10----10----10----10--9--10---|
d|-12----------12----------12-------------------------|
a|----------------------------------------------------|
E|----------------------------------------------------|

----------------------------------------------------|
---------------------------------------8------------|
---7---7---9--10---10---9---7---9----9---10-------9-|
-----8------------8---------------10----------10----|
----------------------------------------------------|
----------------------------------------------------|


RIFF 2 (identical)
e|------------------------------------------------|
b|-------10----------11------------13----15-------|
g|----10----10----10----10------12----12----14----|
d|-12----------12---------12/14----------------15-|
a|------------------------------------------------|
E|------------------------------------------------|

-----------------------------------------|
----------------------------------8------|
-----------7-9-10---10-9-7-9----9---10---|
-14-12---8--------8----------10----------|
-----------------------------------------|
-----------------------------------------|
Tap to rate this tab
 
# A B C D E F G H I J K L M N O P Q R S T U V W X Y Z