Song name
# A B C D E F G H I J K L M N O P Q R S T U V W X Y Z

Peter Murphy - Gliding Like A Whale tab

-------------------------------------------------------------------------------
                      Gliding Like a Whale - Peter Murphy
-------------------------------------------------------------------------------
Tabbed by: Myself
Email: cpochie92@gmail.com

Tuning: Standard

Chords (Whole Song):

This song only uses A and D chords; each gets two whole measures, so:


   A                           D
It only takes the time between here and there for landing in another place


This pattern persists for the whole song.

Melody Riff:

This is the melody played by the synth at the beginning of the song, but can be 
fun to play along to.

        A                A           D        D
e|--------------|----------------|-------|---------|
B|--------------|----------------|-------|---------|
G|-----9--7--6--|----------------|-------|---------|
D|--7-----------|--9--7--6-------|-------|---------|
A|--------------|-----------9-7--|---5---|---(5)---|
E|--------------|----------------|-------|---------|


Bridge Riff:

This plays right after the second chorus.


      A            A             D        D
e|---------|----------------|--------|-------|
B|---------|----------------|--------|-------|
G|---------|----------------|--------|-------|
D|---------|----------------|--6--7--|---4---|
A|---------|----------5--7--|--------|-------|
E|----5----|--(5)--7--------|--------|-------|
Tap to rate this tab
# A B C D E F G H I J K L M N O P Q R S T U V W X Y Z