Song name
# A B C D E F G H I J K L M N O P Q R S T U V W X Y Z

Peter Murphy - Our Secret Garden tab

-------------------------------------------------------------------------------
                      Our Secret Garden - Peter Murphy
-------------------------------------------------------------------------------
Tabbed by: Myself
Email: cpochie92@gmail.com

Tuning: Standard


Verse Chords and Riff

Each chord gets two measures; palm mute with delay effect to get the album sound.

             E                            E
e|--------------------------|--------------------------|
B|--------------------------|--------------------------|
G|--------1--------1--------|--------1--------1--------|
D|-----2--------2--------2--|-----2--------2--------2--|
A|--2--------2--------2-----|--2--------2--------2-----|
E|--------------------------|--------------------------|

             Eadd9                        Eadd9
e|--------------------------|--------------------------|
B|--------------------------|--------------------------|
G|--------1--------1--------|--------1--------1--------|
D|-----4--------4--------4--|-----4--------4--------4--|
A|--2--------2--------2-----|--2--------2--------2-----|
E|--------------------------|--------------------------|

Muted riff:

This is played when the drums and bass come in at the beginning of the song. Palm mute 
to achieve the desired sound.


e|--------------|-----------------|
B|-----3--5--6--|--5--6--6--5--3--|
G|--4-----------|-----------------|
D|--------------|-----------------|
A|--------------|-----------------|
E|--------------|-----------------|

Alternate Verse Chords and Riff:

The song doesn't have a conventional chorus; this is the chord change from the initial 
verse, and also functions as the outro.

            Amaj9                     Amaj9
e|--------------------------|--------------------------|
B|--------------------------|--------------------------|
G|--------1--------1--------|--------1--------1--------|
D|-----2--------2--------2--|-----2--------2--------2--|
A|--0--------0--------0-----|--0--------0--------0-----|
E|--------------------------|--------------------------|

            B7sus4            B7sus4     Bsus4
e|--------------------------|--------------------------|
B|--------------------------|--------------------------|
G|--------2--------2--------|--------2--------4--------|
D|-----4--------4--------4--|-----4--------4--------4--|
A|--2--------2--------2-----|--2--------2--------2-----|
E|--------------------------|--------------------------|
Tap to rate this tab
# A B C D E F G H I J K L M N O P Q R S T U V W X Y Z