Song name
# A B C D E F G H I J K L M N O P Q R S T U V W X Y Z

Peter Murphy - Peace To Each tab

-------------------------------------------------------------------------
                       Peace to Each - Peter Murphy
-------------------------------------------------------------------------
Tabbed by: Myself
Email: cpochie92@gmail.com

Tuning: Standard

--Main Riff--
           
      
e|---------------|----------------|---------------|-----------------|
B|---------------|----------------|---------------|-----------------|
G|---------------|----------------|---------------|-----------------|
D|---------------|----------------|---------------|--------------2--|
A|-----------0-2-|------0---2--2--|-----------0-2-|------0---0-2----|
E|--0--3-0-3-----|-3--3---3-------|--0--3-0-3-----|-3--3---3--------|


--Pre-Chorus--

  
e|--------------------|
B|--------------------|
G|--------------------|
D|--7--5--4--7--9--9--|
A|--7--5--4--7--9--9--|
E|--5--3--2--5--7--7--|


--Chorus--

e|---------------------|
B|---------------------|
G|--9--8--7---------7--|
D|--9--8--7--9--10--7--|
A|--7--6--5--9--10--5--|
E|-----------7--8------|

--Bridge--

e|------------|----------------|
B|------------|----------------|
G|------------|----------------|
D|------4--2--|------4------2--|
A|--2---2--0--|--2---2--0-2----|
E|--0---------|--0-------------|
Tap to rate this tab
# A B C D E F G H I J K L M N O P Q R S T U V W X Y Z