Guitaretab - guitar tabs
Song name
# A B C D E F G H I J K L M N O P Q R S T U V W X Y Z

Peter Pan Speedrock - Live Fast Die Young tab

Tabbed by: Tias Witmondt 
Netherlands Almere

Artist: Peter Pan Speedrock
Number: Live Fast Die Young
Album: Speedrock Chartbuster Vol.1

b = Bend
/ \ = slides
~ = vibrato
R = Ringout

Intro
E|---------------|---------------|---------------|---------------|
B|---------------|---------------|---------------|---------------|
G|-9-9-9-9-9-9-9-|-7-7-7-7-7-7-7-|---------------|-9-9-9-9-9-9-9-|
D|-9-9-9-9-9-9-9-|-7-7-7-7-7-7-7-|-7-7-7-7-7-7-7-|-9-9-9-9-9-9-9-|
A|-7-7-7-7-7-7-7-|-5-5-5-5-5-5-5-|-7-7-7-7-7-7-7-|-7-7-7-7-7-7-7-|
E|---------------|---------------|-5-5-5-5-5-5-5-|---------------|

Riff 1A   2X
E|-------------|---------|
B|-------------|---------|
G|-------------|-7~--5~--|
D|------------|-7~--5~--|
A|-6/7\6/7\6--|---------|
E|--4/5\4/5\4--|---------|

Riff 1B  1X

E|-------------|---------|
B|-------------|---------|
G|------------|---------|
D|-6/7\6/7\6--|-7--7-7--|
A|--4/5\4/5\4--|-5--5-5--|
E|-------------|---------|

Riff 1A   1X
E|-------------|---------|
B|-------------|---------|
G|-------------|---------|
D|------------|-7~--5~--|
A|-6/7\6/7\6--|-7~--5~--|
E|--4/5\4/5\4--|---------|


Intro 1X


Riff 2A 2X
E|-----------------|-------------------|--------|
B|-----------------|-------------------|--------|
G|-----------------|-------------------|-7~--5~-|
D|-----------------|-------------------|-7~--5~-|
A|-7-7-7-7-7-7-7-7-|-------------------|--------|
E|-5-5-5-5-5-5-5-5-|-0h4h5-0h4h5-0h4h5-|--------|

Riff 2B 1X
E|-----------------|-------------------|----------|
B|-----------------|-------------------|----------|
G|-----------------|-------------------|-12~--10~-|
D|-7-7-7-7-7-7-7-7-|-------------------|-12~--10~-|
A|-5-5-5-5-5-5-5-5-|-0h4h5-0h4h5-0h4h5-|----------|
E|-----------------|-------------------|----------|
Riff 2A 1X


Riff 3 
E|---------------|---------------|---------------|---------------|
B|---------------|---------------|---------------|---------------|
G|-9-9-9-9-9-9-9-|-9-9-9-9-9-9-9-|-9-9-9-9-9-9-9-|-9-9-9-9-9-9-9-|
D|-9-9-9-9-9-9-9-|-9-9-9-9-9-9-9-|-9-9-9-9-9-9-9-|-9-9-9-9-9-9-9-|
A|-7-7-7-7-7-7-7-|-7-7-7-7-7-7-7-|-7-7-7-7-7-7-7-|-7-7-7-7-7-7-7-|
E|---------------|---------------|---------------|---------------|


Verse
E|---------------|---------------|---------------|
G|---------------|---------------|---------------|
B|---------------|---------------|---------------|
D|-7-----------7-|-7-----------7-|-7-------------|
A|-7-----------7-|-7-----------7-|-7-------------|
E|-5-----------5-|-5-----------5-|-5-------------|


Solo
|1414141415151515|1414141415151515|1414141415151515|1414141415151515|
|----------------|----------------|----------------|----------------|
|----------------|----------------|----------------|----------------|
|----------------|----------------|----------------|----------------|
|----------------|----------------|----------------|----------------|
|----------------|----------------|----------------|----------------|
[ Tab from: http://www.guitaretab.com/p/peter-pan-speedrock/149854.html ]
|-17b-17b-17b~~-|--17b~-17b~-17b-|----------------|----------------|
|----------------|----------------|----13-15-17~---|--17b-17b-17b~--|
|----------------|----------------|-14-------------|----------------|
|----------------|----------------|----------------|----------------|
|----------------|----------------|----------------|----------------|
|----------------|----------------|----------------|----------------|
                                    This 4X         here some strange
                                                    bends


This throughout the solo
E|---------------|---------------|---------------|---------------|
G|---------------|---------------|---------------|---------------|
B|---------------|---------------|---------------|---------------|
D|-7-7-7-7-7-7-7-|-7-7-7-7-7-7-7-|-7-7-7-7-7-7-7-|-7-7-7-7-7-7-7-|
A|-7-7-7-7-7-7-7-|-7-7-7-7-7-7-7-|-7-7-7-7-7-7-7-|-7-7-7-7-7-7-7-|
E|-5-5-5-5-5-5-5-|-5-5-5-5-5-5-5-|-5-5-5-5-5-5-5-|-5-5-5-5-5-5-5-|

E|---------------|---------------|---------------|---------------|
G|---------------|---------------|---------------|---------------|
B|-7-7-7-7-7-7-7-|-7-7-7-7-7-7-7-|---------------|---------------|
D|-7-7-7-7-7-7-7-|-7-7-7-7-7-7-7-|-7-7-7-7-7-7-7-|-7-7-7-7-7-7-7-|
A|-5-5-5-5-5-5-5-|-5-5-5-5-5-5-5-|-7-7-7-7-7-7-7-|-7-7-7-7-7-7-7-|
E|---------------|---------------|-5-5-5-5-5-5-5-|-5-5-5-5-5-5-5-|

E|---------------|---------------|---------------|---------------|
G|---------------|---------------|---------------|---------------|
B|-9-9-9-9-9-9-9-|-7-7-7-7-7-7-7-|---------------|-9-9-9-9-9-9-9-|
D|-9-9-9-9-9-9-9-|-7-7-7-7-7-7-7-|-7-7-7-7-7-7-7-|-9-9-9-9-9-9-9-|
A|-7-7-7-7-7-7-7-|-5-5-5-5-5-5-5-|-7-7-7-7-7-7-7-|-7-7-7-7-7-7-7-|
E|---------------|---------------|-5-5-5-5-5-5-5-|---------------|



The strange part is like this under solo 2

E|----------------|   |----------------|----------------|
G|----------------|   |----------------|----------------|
B|----------------|   |----------------|----------------|
D|-777777777------|   |-7-7-----7-7----|-77777666665555-|
A|-555555555------|   |-5-5-----5-5----|-55555444443333-|
E|-555555555--0---|2X |-5-5-0--5-5-0-|-55555444443333-|

Second solo ends with 
1X
E|-10-10-10-10-10-|-10-10-10-10-10-|-5-5-5-5-5-5-5-|-5-5-5-5-5-5-5-|
G|-10-10-10-10-10-|-10-10-10-10-10-|-5-5-5-5-5-5-5-|-5-5-5-5-5-5-5-|
B|----------------|----------------|---------------|---------------|
D|----------------|----------------|---------------|---------------|
A|----------------|----------------|---------------|---------------|
E|----------------|----------------|---------------|---------------|

2X
E|-12-12-12-12-12-|-10-10-10-10-10-|-5-5-5-5-5-5-5-|-5-5-5-5-5-5-5-|
G|-12-12-12-12-12-|-10-10-10-10-10-|-5-5-5-5-5-5-5-|-5-5-5-5-5-5-5-|
B|----------------|----------------|---------------|---------------|
D|----------------|----------------|---------------|---------------|
A|----------------|----------------|---------------|---------------|
E|----------------|----------------|---------------|---------------|

1X
E|-12-12-12-12-12-|-10-10-10-10-10-|-5-5-5-5-5-5-5-|---------------|
G|-12-12-12-12-12-|-10-10-10-10-10-|-5-5-5-5-5-5-5-|---------------|
B|----------------|----------------|---------------|---------------|
D|----------------|----------------|---------------|-7---7---7---7-|
A|----------------|----------------|---------------|-7---7---7---7-|
E|----------------|----------------|---------------|-5---5---5---5-|

E|----------------|----------------|
G|----------------|----------------|
B|----------------|----------------|
D|-7r-------------|-------------7\-|
A|-7r-------------|-/7~9~7~10---7\-|
E|-5r-------------|-------------5\-|

The end, I will tab out the second solo later and post it. Bit have fun with this.

Greetz Tias
Related for Live Fast Die Young tab