Guitaretab - guitar tabs
Song name
# A B C D E F G H I J K L M N O P Q R S T U V W X Y Z

Peter Paul And Mary - Puff The Magic Dragon tab

                    PUFF, THE MAGIC DRAGON
                    ----------------------


 E -3--333-2-----33------------------------------------------------------|
 B ----------3-5----3----------------------------------------------------|
 G ----------------------------------------------------------------------|
 D ----------------------------------------------------------------------|
 A ----------------------------------------------------------------------|
 E ----------------------------------------------------------------------|
   Puff, the magic dragon lived by the sea
[ Tab from: http://www.guitaretab.com/p/peter-paul-and-mary/14430.html ]
 E -------------3-333-----------------------------------------------------|
 B -3---------3-------5-7-8-10--------------------------------------------|
 G ---55-7-54-------------------------------------------------------------|
 D -----------------------------------------------------------------------|
 A -----------------------------------------------------------------------|
 E -----------------------------------------------------------------------|
   And frolicked in the autumn mist in a land called Honolee


 E -3--333-2------33-----------------------------------------------------|
 B ----------3-55----3---------------------------------------------------|
 G ----------------------------------------------------------------------|
 D ----------------------------------------------------------------------|
 A ----------------------------------------------------------------------|
 E ----------------------------------------------------------------------|
   Little Jackie Paper loved that rascal Puff

 E -------------3-33---3----5-3------------------------------------------|
 B -3---------3------5---7-----------------------------------------------|
 G ---55-7-54------------------------------------------------------------|
 D ----------------------------------------------------------------------|
 A ----------------------------------------------------------------------|
 E ----------------------------------------------------------------------|
   And brought him strings and sealing wax, and other fancy stuff

   Just repeat in the chorus and next verse:P
Related for Puff The Magic Dragon tab
Puff The Magic Dragon chords by Peter Paul And Mary