Song name
# A B C D E F G H I J K L M N O P Q R S T U V W X Y Z

Peter Paul And Mary - Puff The Magic Dragon tab

t. See http://www.olga.net/faq/ for more information.                     #
#-----------------------------------------------------------------------------#

From: SilentRepose@aol.com
Date: Thu, 30 Sep 1999 16:30:55 EDT
Subject: p/peter_paul_and_mary/puff_the_magic_dragon.tab

A better, and funner version of puff the magic dragon.

Artist: Peter, Paul, and Mary
Song: Puff the Magic Dragon
Album: Greatest Hits


  C                    Em               F
|-------------------|----------------|--1--------1-----|
|-1---------1-------|--0-------0-----|----1---1----1---|
|---0---0-----0-----|----0---0---0---|------2--------2-|
|-----2---------2---|------2-------2-|--3--------------|
|-3-----------------|--2-------------|-----------------|
|-------------------|----------------|-----------------|

  C                F                 C         Am
|----------------|--1--------1-----|---------|---------|
|-1--------1-----|----1---1----1---|-1-------|-1-------|
|---0---0----0---|------2--------2-|---0---0-|---2---2-|
|-----2--------2-|--3--------------|-----2---|-----2---|
|-3--------------|-----------------|-3-------|-0-------|
|----------------|-----------------|---------|---------|

  D7                G7
|--2--------2-----|-1------------|
|----1---1----1---|---0----------|
|------2--------2-|-----0--------|
|--0--------------|-------0------|
|-----------------|----------0---|
|-----------------|------------2-|
|-----------------|-3------------|
Tap to rate this tab
# A B C D E F G H I J K L M N O P Q R S T U V W X Y Z