Song name
# A B C D E F G H I J K L M N O P Q R S T U V W X Y Z

Peter Paul And Mary - Where Have All The Flowers Gone tab

-------------------------------------------------------------------------------
			     SONG NAME - Band Name
-------------------------------------------------------------------------------
Tabbed by: El Gigante
Email: guitar_guy@insightbb.com

Tuning: Standard 
                  The following is just an arpeggio of chords
             G               Em              C                D7 
e|-----------3---------------0---------------0----------------2--------------|
B|---------0---0-----------0---0-----------1---1------------1---1------------|
G|-------0-------0-------0-------0-------0-------0--------2-------2----------|
D|-----------------------------------------------------0---------------------|
A|------------------------------------3--------------------------------------|
E|----3---------------0------------------------------------------------------|
             G               Em              C                D7
e|-----------3---------------0---------------0----------------2--------------|
B|---------0---0-----------0---0-----------1---1------------1---1------------|
G|-------0-------0-------0-------0-------0-------0--------2-------2----------|
D|-----------------------------------------------------0---------------------|
A|------------------------------------3--------------------------------------|
E|----3---------------0------------------------------------------------------|
             G               Em              C                D7
e|-----------3---------------0---------------0----------------2--------------|
B|---------0---0-----------0---0-----------1---1------------1---1------------|
G|-------0-------0-------0-------0-------0-------0--------2-------2----------|
D|-----------------------------------------------------0---------------------|
A|------------------------------------3--------------------------------------|
E|----3---------------0------------------------------------------------------|
           C                D7               C                G
e|---------0----------------2----------------0----------------3--------------|
B|-------1---1------------1---1------------1---1------------0---0------------|
G|-----0-------0--------2-------2--------0-------0--------0-------0----------|
D|-------------------0-------------------------------------------------------|
A|--3---------------------------------3--------------------------------------|
E|-----------------------------------------------------3---------------------|
           C                D7               G 
e|---------0----------------2----------------3-------------------------------|
B|-------1---1------------1---1------------0---0-----------------------------|
G|-----0-------0--------2-------2--------0-------0---------------------------|
D|-------------------0-------------------------------------------------------|
A|--3------------------------------------------------------------------------|
E|------------------------------------3--------------------------------------|

       Play the rest of the verses using the same pattern.
Tap to rate this tab
# A B C D E F G H I J K L M N O P Q R S T U V W X Y Z