Song name
# A B C D E F G H I J K L M N O P Q R S T U V W X Y Z

Peter Paul And Mary - 500 Miles tab

-------------------------------------------------------------------------------
			     500 Miles - Peter Paul & Mary
-------------------------------------------------------------------------------
Tabbed by:AlarV
Email:Alarvfm@hotmail.com

Intro:
        C                    Am                  Dm                  F
e|-----------0------------------0------------------0--1-------------------1--|
B|---------1---1-------------1-----1------------3--------3-------------1----1|
G|-------0----------------2------------------2----------------------2--------|
D|----2----------------2------------------0----------------------3-----------|
A|--3---------------0--------------------------------------------------------|
E|------------------------------------------------------------1--------------|
               Dm              G                                   C
e|------------0--1------------------------------------------------0----------|
B|---------3--------3--------------3----1-----3----------------1-----1-------|
G|------2-----------------------0---------------------------0----------------|
D|---0-----------------------0---------------------------2-------------------|
A|----------------------------------------------------3----------------------|
E|-------------------------3------------1-----3------------------------------|

       C           If you miss the train I'm on, 
e|------------0-------------------------0------------------0-----------------|
B|---------1-----1-------------------1-----1------------1-----1--------------|
G|------0-------------------------0------------------2-----------------------|
D|---2-------------------------2------------------2--------------------------|
A|-3------------------------3------------------0-----------------------------|
E|---------------------------------------------------------------------------|
   You will know that I am gone
e|------------------0--1--------------------1--------------------------------|
B|---------------3--------3--------------1-----1-----------------------------|
G|------------2-----------------------2--------------------------------------|
D|---------0-----------------------3-----------------------------------------|
A|---------------------------------------------------------------------------|
E|-----------------------------1---------------------------------------------|

ou can hear the whistle blow        A hundred miles                                     
e|------------0--1------------------------------------------------0----------|
B|---------3--------3--------------3----1-----3----------------1-----1-------|
G|------2-----------------------0---------------------------0----------------|
D|---0-----------------------0---------------------------2-------------------|
A|----------------------------------------------------3----------------------|
E|-------------------------3------------1-----3------------------------------|

And so it is till the end of the song..

A hundred miles, A hundred miles
A hundred miles, A hundred miles
You can hear the whistle blow
A hundred miles

Lord I'm one
Lord I'm two
Lord I'm three
Lord I'm four
Lord I'm five hundred miles
From my home

500 miles, 500 miles
500 miles, 500 miles
Lord I'm 500 miles
From my home

Not a shirt on my back
Not a penny to my name
Lord I can't go home this way
This way, This way
This way, This way
Lord I can't go home this way

If you miss the train I'm on
You will know that I am gone
You can hear the whistle blow
A hundred miles
Tap to rate this tab
 
# A B C D E F G H I J K L M N O P Q R S T U V W X Y Z