Guitaretab - guitar tabs
Song name
# A B C D E F G H I J K L M N O P Q R S T U V W X Y Z

Peter Punk - Utopia tab

Bass Intro

Uooo! Uoooo! Uooo! Uoooo! Uooo! Uoooo! Uooo! Uoooo!

Intro

e|--------------------------------------------------------------------------------------|
B|--------------------------------------------------------------------------------------|
G|---7-6-4b--7-6-4-19b---7-6-4b--7-6-4-19b---11-9-7b--11-9-7-19b---11-9-7b--11-9-7-19b--|
D|--------------------------------------------------------------------------------------|
A|--------------------------------------------------------------------------------------|
E|--------------------------------------------------------------------------------------|

Chorus

e|-------------------------------------------------------------------------------------------|
B|-------------------------------------------------------------------------------------------|
G|---4-4-4-4-4-4-4-4---------------------7-7-7-7-7-7-7-7---2-2-2-2-2-2-2-2-------------------|
D|---4-4-4-4-4-4-4-4---5-5-5-5-5-5-5-5---7-7-7-7-7-7-7-7---2-2-2-2-2-2-2-2-------------------|
A|---2-2-2-2-2-2-2-2---5-5-5-5-5-5-5-5---5-5-5-5-5-5-5-5---0-0-0-0-0-0-0-0-------------------|
E|---------------------3-3-3-3-3-3-3-3-------------------------------------------------------|
x2

Non c'č pių niente da fare, mi resta un sogno da realizzare!
Solo per esserne fieri, senza voltarmi e pensare a ieri!

Verse

e|--------------------------------------------------------------------------------------------|
B|--------------------------------------------------------------------------------------------|
G|--------------------------------------------------------------------------------------------|
D|---5--7--9-9-9-9-9---5--7--9-9-9-9-9---5--7--9-9-9-9-9--------------------------------------|
A|---5--7--9-9-9-9-9---5--7--9-9-9-9-9---5--7--9-9-9-9-9--------------------------------------|
E|---3--5--7-7-7-7-7---3--5--7-7-7-7-7---3--5--7-7-7-7-7--------------------------------------|

Dove andrai, troverai, solo guai!


Chorus

e|--------------------------------------------------------------------------------------------|
B|--------------------------------------------------------------------------------------------|
G|---4-4-4-4-4---------------7-7-7-7-7---2-2-2-2-2--------------------------------------------|
D|---4-4-4-4-4---5-5-5-5-5---7-7-7-7-7---2-2-2-2-2--------------------------------------------|
A|---2-2-2-2-2---5-5-5-5-5---5-5-5-5-5---0-0-0-0-0--------------------------------------------|
E|---------------3-3-3-3-3--------------------------------------------------------------------|
 x4

Uooo! Uoooo! Uooo! Uoooo! Uooo! Uoooo! Uooo! Uoooo!

Only bass...
[ Tab from: http://www.guitaretab.com/p/peter-punk/161318.html ]
Figlio di una speranza, di un'illusione senza importanza
Schiavo di un solo destino, pronto a deviarti ogni cammino

e|---------------------|
B|---------------------|
G|---4-4-4-4-4-4-4-4---|
D|---4-4-4-4-4-4-4-4---|
A|---2-2-2-2-2-2-2-2---|
E|---------------------|

Verse

e|--------------------------------------------------------------------------------------------|
B|--------------------------------------------------------------------------------------------|
G|--------------------------------------------------------------------------------------------|
D|---5--7--9-9-9-9-9---5--7--9-9-9-9-9---5--7--9-9-9-9-9--------------------------------------|
A|---5--7--9-9-9-9-9---5--7--9-9-9-9-9---5--7--9-9-9-9-9--------------------------------------|
E|---3--5--7-7-7-7-7---3--5--7-7-7-7-7---3--5--7-7-7-7-7--------------------------------------|

Dove andrai, troverai, solo guai!

Chorus

e|--------------------------------------------------------------------------------------------|
B|--------------------------------------------------------------------------------------------|
G|---4-4-4-4-4---------------7-7-7-7-7---2-2-2-2-2--------------------------------------------|
D|---4-4-4-4-4---5-5-5-5-5---7-7-7-7-7---2-2-2-2-2--------------------------------------------|
A|---2-2-2-2-2---5-5-5-5-5---5-5-5-5-5---0-0-0-0-0--------------------------------------------|
E|---------------3-3-3-3-3--------------------------------------------------------------------|
 x4

Uooo! Uoooo! Uooo! Uoooo! Uooo! Uoooo! Uooo! Uoooo!

Solo

e|-----------------------------------------------------------------------------------|
B|-----------------------------------------------------------------------------------|
G|---7-6-4b--7-6-4-2b---7-6-4b--7-6-4-2---11-9-7b--11-9-7-19b---11-9-7b--11-9-7-19b--|
D|-----------------------------------------------------------------------------------|
A|-----------------------------------------------------------------------------------|
E|-----------------------------------------------------------------------------------|

Outro

e|--------------------------------------------------------------------------------------------|
B|--------------------------------------------------------------------------------------------|
G|--------------------------------------------------------------------------------------------|
D|---5--7--9-9-9-9-9---5--7--9-9-9-9-9---5--7--9-9-9-9-9--------------------------------------|
A|---5--7--9-9-9-9-9---5--7--9-9-9-9-9---5--7--9-9-9-9-9--------------------------------------|
E|---3--5--7-7-7-7-7---3--5--7-7-7-7-7---3--5--7-7-7-7-7--------------------------------------|


Dove andrai, troverai, solo guai!
Related for Utopia tab
Advertisement will be closed in 10 seconds