Song name
# A B C D E F G H I J K L M N O P Q R S T U V W X Y Z

Peter Punk - A Letto Con Selen tab

Tab by Ibanez182

Intro x2                               x2
-------------------------------------|------------------------------|
-------------------------------------|------------------------------|
--11-11-11-9-11-9------------11-9-11-|-12--11-----9-----------------|
------------------12-9-12-9----------|--------12--------------------|
-------------------------------------|------------------------------|
-------------------------------------|------------------------------|


Strofa e rit
------------------------------|
------------------------------|
---7--------------------------|
---7--7---5---7---------------|
---5--7---5---7---------------|
------5---3---5---------------|


-------------------------------------------------------------------|
-------------------------------------------------------------------|
--11----------11-9-11--------11--12-11--9-11-9---------------------|
-----9--12-9----------9-12-9--------------------12--9--------------|
-------------------------------------------------------------------|
-------------------------------------------------------------------|


-------------------------------------------------------------------|
-------------------------------------------------------------------|
-11--------11-9-11---------11-12--14-12--11--9---------------------|
----9-12-9---------9-12-9------------------------------------------|
-------------------------------------------------------------------|
-------------------------------------------------------------------|

x3                                       x8
---------------------------------------|---------------------------------------|
---------------------------------------|---------------------------------------|
--------9--11-12-11-9---------9--11----|------9-11-12-11-9---------9-11--------|
-9--12----------------12-9-12-------12-|-9-12--------------12-9-12-------------|
---------------------------------------|---------------------------------------|
---------------------------------------|---------------------------------------|
Tap to rate this tab
 
# A B C D E F G H I J K L M N O P Q R S T U V W X Y Z