Song name
# A B C D E F G H I J K L M N O P Q R S T U V W X Y Z

Peter Punk - Obbligato Dallo Stato tab

ArtistPeter Punk
Song: Obbligato dalo stato

intro:
e-----------------------------------|
B-----------------------------------|
G--9-9-9-9-------9-9-9-9------------|
D--9-9-9-9--7-7--9-9-9-9--9-9-------|   X2
A--7-7-7-7--7-7--7-7-7-7--9-9-------|
E-----------5-5-----------7-7-------|

e---------------------|
B---------------------|
G--9-9-9-9------------|
D--9-9-9-9--9-9-------|   
A--7-7-7-7--9-9-------|
E-----------7-7-------|

Parte 1:
e---------------------------------------|
B---------------------------------------|
G--9-9-9-9-----------9-9-9-9------------|
D--9-9-9-9--7-7-7-7--9-9-9-9--9-9-9-9---|  X2
A--7-7-7-7--7-7-7-7--7-7-7-7--9-9-9-9---|
E-----------5-5-5-5-----------7-7-7-7---|
P.M.-----------------------------------

e--------------------------------------|
B--------------------------------------|
G--9-9-9-9-----------9-9-9-9-----------|
D--9-9-9-9--7-7-7-7--9-9-9-9--9----9---|  
A--7-7-7-7--7-7-7-7--7-7-7-7--9----9---|
E-----------5-5-5-5-----------7----7---|
P.M.------------------------

Rit:
e----------------------------------|-------------------|
B----------------------------------|-------------------|
G--9-------9-------9-------9-------|--9------------9---|  
D--9---7---9---9---9---7---9---9---|--9---9---9----9---|  
A--7---7---7---9---7---7---7---9---|--7---9---9----7---|  
E------5-------7-------5-------7---|------7---7--------|


e|-------------|
B|-------------|
G|--9----------|
D|--9---9---9--|
A|--7---9---9--|
E|------7---7--|

e---------------------------------------|
B---------------------------------------|
G--9-9-9-9-----------9-9-9-9------------|
D--9-9-9-9--7-7-7-7--9-9-9-9--9-9-9-9---|  X2
A--7-7-7-7--7-7-7-7--7-7-7-7--9-9-9-9---|
E-----------5-5-5-5-----------7-7-7-7---|
P.M.-----------------------------------

e--------------------------------------|
B--------------------------------------|
G--9-9-9-9-----------9-9-9-9-----------|
D--9-9-9-9--7-7-7-7--9-9-9-9--9----9---|  
A--7-7-7-7--7-7-7-7--7-7-7-7--9----9---|
E-----------5-5-5-5-----------7----7---|
P.M.------------------------

e----------------------------------|-------------------|
B----------------------------------|-------------------|
G--9-------9-------9-------9-------|--9------------9---|  
D--9---7---9---9---9---7---9---9---|--9---9---9----9---|  
A--7---7---7---9---7---7---7---9---|--7---9---9----7---|  
E------5-------7-------5-------7---|------7---7--------|

e|------------------|
B|------------------|
G|--9------------9--|
D|--9---9---9----9--|
A|--7---9---9----7--|
E|------7---7-------|

..credo k sia cosi..provatela..

Tap to rate this tab
# A B C D E F G H I J K L M N O P Q R S T U V W X Y Z