Song name
# A B C D E F G H I J K L M N O P Q R S T U V W X Y Z

Peter Punk - S Remo tab

Help us improve GuitareTab! Take a short survey!
Intro

e|----------------------------------------------------------------------------------------------|
B|----------------------------------------------------------------------------------------------|
G|---7-7--9-9-9-9-9-9-9-9---14-14--11---14-14--11---14-14--11----7-7--9-9-9-9-9-9-9-9-9-9-9-9---|
D|---7-7--9-9-9-9-9-9-9-9---14-14--11---14-14--11---14-14--11----5-5--9-9-9-9-9-9-9-9-9-9-9-9---|
A|---5-5--7-7-7-7-7-7-7-7---12-12---9---12-12---9---12-12---9----5-5--7-7-7-7-7-7-7-7-7-7-7-7---|
E|----------------------------------------------------------------------------------------------|



Verse

e|-----------------------------------------------------------|     |----------------------------|
B|-----------------------------------------------------------|     |----------------------------|
G|-------------7-7-7-7-7-----------------6-6-6-6-6-----------|     |---6--6--6------------------|
D|---4-4-4-0---7-7-7-7-7---7-7-7-7-7-0---6-6-6-6-6-----------|x2   |---6--6--6------------------|
A|---4-4-4-0---5-5-5-5-5---7-7-7-7-7-0---4-4-4-4-4-----------|     |---4--4--4------------------|
E|---2-2-2-0---------------5-5-5-5-5-0-----------------------|     |----------------------------|

Oggi la penisola che cosa ci offrirà, al teatro Ariston San Remo ci sarà!



e|-----------------------------------------------------------|     |----------------------------|
B|-----------------------------------------------------------|     |----------------------------|
G|-----------------------------------------------------------|     |---6-6-6-6-6----------------|
D|-----------------------------------------------------------|x2   |---6-6-6-6-6----------------|
A|-------------5-5-5-5-5---------------4-4-4-4-4-------------|     |---4-4-4-4-4----------------|
E|---2-2-2-2---------------5-5-5-5-5-------------------------|     |----------------------------|

In eurovisione tutto il mondo crederà, che la musica italiana è solo quella là!



Verse II

e|----------------------------------------------------------------------------------------------|
B|----------------------------------------------------------------------------------------------|
G|---7-7--9-9-9-9-9-9-9-9---14-14--11---14-14--11---14-14--9----7-7--9-9-9-9-9-9-9-9-9-9-9-9----|
D|---7-7--9-9-9-9-9-9-9-9---14-14--11---14-14--11---14-14--9----5-5--9-9-9-9-9-9-9-9-9-9-9-9----|
A|---5-5--7-7-7-7-7-7-7-7---12-12---9---12-12---9---12-12--7----5-5--7-7-7-7-7-7-7-7-7-7-7-7----|
E|----------------------------------------------------------------------------------------------|



Verse (Pre Chorus)

e|-----------------------------------------------------------|     |----------------------------|
B|-----------------------------------------------------------|     |----------------------------|
G|-------------7-7-7-7-7-----------------6-6-6-6-6-----------|     |---6--6--6------------------|
D|---4-4-4-0---7-7-7-7-7---7-7-7-7-7-0---6-6-6-6-6-----------|x2   |---6--6--6------------------|
A|---4-4-4-0---5-5-5-5-5---7-7-7-7-7-0---4-4-4-4-4-----------|     |---4--4--4------------------|
E|---2-2-2-0---------------5-5-5-5-5-0-----------------------|     |----------------------------|

E non possono mancare gli emergenti che, spinti dalle major saliranno in hit parade!



e|-----------------------------------------------------------|     |----------------------------|
B|-----------------------------------------------------------|     |----------------------------|
G|-----------------------------------------------------------|     |---6-6-6-6-6----------------|
D|-----------------------------------------------------------|x2   |---6-6-6-6-6----------------|
A|-------------5-5-5-5-5---------------4-4-4-4-4-------------|     |---4-4-4-4-4----------------|
E|---2-2-2-2---------------5-5-5-5-5-------------------------|     |----------------------------|

In eurovisione tutto il mondo crederà, che la musica italiana è solo quella là!



Chorus

e|----------------------------------------------------------------------------------------------|     
B|----------------------------------------------------------------------------------------------|     
G|-------------------7-7-7-7-7-7-7-------------------9-9-9-9-9-9-9------------------------------|     
D|---4-4-4-4-4-4-4---7-7-7-7-7-7-7---7-7-7-7-7-7-7---9-9-9-9-9-9-9------------------------------|x2   
A|---4-4-4-4-4-4-4---5-5-5-5-5-5-5---7-7-7-7-7-7-7---7-7-7-7-7-7-7------------------------------|     
E|---2-2-2-2-2-2-2-------------------5-5-5-5-5-5-5----------------------------------------------|     

Odia le persone che si montano la testa, sempre meglio avere appresso una cresta!
Da portare con orgoglio e convinzione, diamo noi il buon esempio alla nazione!



e|-----------------------------------------------------------|     
B|-----------------------------------------------------------|     
G|---------7-7---------6-6-----------------------------------|     
D|---4-4---7-7---7-7---6-6-----------------------------------|x2  
A|---4-4---5-5---7-7---4-4-----------------------------------|     
E|---2-2---------5-5-----------------------------------------|

Eh! Eh! Eh! Eh!



Solo

e|----------------------------------------------------------------------------------------------|     
B|------------------------------------------------------------------12--------------------------|     
G|---11-9-11-9h11-9-11-9-9-9-9-11-9b---11-9-11-9h11-9-11-9-14-14-14----13b----------------------|     
D|----------------------------------------------------------------------------------------------|x2   
A|----------------------------------------------------------------------------------------------|     
E|----------------------------------------------------------------------------------------------|  



Chorus

e|----------------------------------------------------------------------------------------------|     
B|----------------------------------------------------------------------------------------------|     
G|-------------------7-7-7-7-7-7-7-------------------9-9-9-9-9-9-9------------------------------|     
D|---4-4-4-4-4-4-4---7-7-7-7-7-7-7---7-7-7-7-7-7-7---9-9-9-9-9-9-9------------------------------|x2   
A|---4-4-4-4-4-4-4---5-5-5-5-5-5-5---7-7-7-7-7-7-7---7-7-7-7-7-7-7------------------------------|     
E|---2-2-2-2-2-2-2-------------------5-5-5-5-5-5-5----------------------------------------------|     

Odia le persone che si montano la testa, sempre meglio avere appresso una cresta!
Da portare con orgoglio e convinzione, diamo noi il buon esempio alla nazione! 



Outro

e|------------------------------------------------------------|     
B|------------------------------------------------------------|     
G|------------------------------------------------------------|     
D|---4-4-4-4-4-4-4---7-7---4----------------------------------|   
A|---4-4-4-4-4-4-4---7-7---4----------------------------------|     
E|---2-2-2-2-2-2-2---5-5---2----------------------------------|  
Related for S Remo tab