Song name
# A B C D E F G H I J K L M N O P Q R S T U V W X Y Z

Peter Salett - Heart Of Mine tab

Left Alone
Lonely Starts and Broken Hearts
Heart of Mine


Intro:
--------------------      ---------------|
--------------------      ---------------|
------------4-4-2---      ---------------|
---x-5-x-55-4-4-2---      ---5-5-5-5-5---|
---x-5-x-55-2-2-0--- x3   ---5-5-5-5-5---|
---x-3-x-33---------      ---3-3-3-3-3---|


Verse:
---------------------     ------------------------------------------|
---------------------     ------------------------------------------|
-------------4-4-2---     ---7-7-7-7-5-5-5-5------------------------|
---x-5-x-5-5-4-4-2---     ---7-7-7-7-5-5-5-5-x-5-x-55---------------|
---x-5-x-5-5-2-2-0--- x2  ---5-5-5-5-3-3-3-3-x-5-x-55---------------|
---x-3-x-3-3---------     -------------------x-3-x-33---------------|


Play Twice


Chorus:
--------------------------------------------------------------------|
--------------------------------------------------------------------|
---7-7-7-7-7-7-7-7-5-5-5-5-5-5-5-5----------4-4-0-----------4-4-2---|
---7-7-7-7-7-7-7-7-5-5-5-5-5-5-5-5-x-5-x-55-4-4-0-x-5-x-55--4-4-2---|
---5-5-5-5-5-5-5-5-3-3-3-3-3-3-3-3-x-5-x-55-2-2-0-x-5-x-55--2-2-0---|
-----------------------------------x-3-x-33-------x-3-x-33----------|


---------------------------------------------------------------|
---------------------------------------------------------------|
---7-7-7-7-7-7-7-7-5-5-5-5-5-5-5-5----------4-4-0--------------|
---7-7-7-7-7-7-7-7-5-5-5-5-5-5-5-5-x-5-x-55-4-4-0-5-5-55-5-5---|
---5-5-5-5-5-5-5-5-3-3-3-3-3-3-3-3-x-5-x-55-2-2-0-5-5-55-5-5---|
-----------------------------------x-3-x-33-------3-3-33-3-3---|


Solo:
-----------------------------------------------5-3-2---------------|
-------------------------------------1-3-------------3-------------|
---4-2-0-----------4-2-0-----------4-------------------0-0-0-0-0---|
-------------------------------------------------------------------|
-------------------------------------------------------------------| x2
-------------------------------------------------------------------|
Tap to rate this tab
# A B C D E F G H I J K L M N O P Q R S T U V W X Y Z