Song name
# A B C D E F G H I J K L M N O P Q R S T U V W X Y Z

Peter Sommer - Til Rotterne Til Kragerne Til Hundene tab

Intro:

guitar 1+2
e----------------------------|
B------------5-----------5---|
G----------------------------|
D------------3-----------3---|
A--3----6--------------------|
E--1----4--------------------|


Chorus:

guitar 1+2
e---------------------------------------------------------------------|
B---------------------------------------------------------------------|
G--10-10-10-10-10-10-10-10-10-10-10-10-10-10-10-10-10-10\8-8-8\5-5-5--|
D---------------------------------------------------------------------|
A---8--8--8--8--8--8--8--8--8--8--8--8--8--8--8--8--8--8\6-6-6\3-3-3--|
E---------------------------------------------------------------------|

vers 1

guitar 1+2
e|-------------------------------------------------------------------|
B|-------------------------------------------------------------------|
G|-5-5-5-------------5-5-5-5-5-5-5-5-5-5-5-5-5-5-5-5-5-5-5-5-5-5-5-5-|
D|-------8-8-8\7-7-7-------------------------------------------------| x2
A|-3-3-3-------------3-3-3-3-3-3-3-3-3-3-3-3-3-3-3-3-3-3-3-3-3-3-3-5-|
E|-------6-6-6\5-5-5-------------------------------------------------|

Chorus:

guitar 1+2
e---------------------------------------------------------------------|
B---------------------------------------------------------------------|
G--10-10-10-10-10-10-10-10-10-10-10-10-10-10-10-10-10-10\8-8-8\5-5-5--|
D---------------------------------------------------------------------|
A---8--8--8--8--8--8--8--8--8--8--8--8--8--8--8--8--8--8\6-6-6\3-3-3--|
E---------------------------------------------------------------------|

Vers 2

guitar 1

e|----------------------------------------------------|
B|----------------------------------------------------|
G|----------------------------------------------------|
D|----10---10---10---10---10---10---10b8---10---10----| x2
A|--3----3----3----3----3----3----3------3----3----3--|
E|----------------------------------------------------|

guitar 2
e|-------------------------------------------------------------------------|
B|-------------------------------------------------------------------------|
G|-5-5-5-------------5-5-5-5-5-5-5-5-5-5-5-5-5-5-5-5-5-5-5-5-5-5-5-5-5-5-5-|
D|-------8-8-8\7-7-7-------------------------------------------------------| x2
A|-3-3-3-------------3-3-3-3-3-3-3-3-3-3-3-3-3-3-3-3-3-3-3-3-3-3-3-3-3-3-3-|
E|-------6-6-6\5-5-5-------------------------------------------------------|



Chorus:

guitar 1+2
e---------------------------------------------------------------------|
B---------------------------------------------------------------------|
G--10-10-10-10-10-10-10-10-10-10-10-10-10-10-10-10-10-10\8-8-8\5-5-5--|
D---------------------------------------------------------------------|
A---8--8--8--8--8--8--8--8--8--8--8--8--8--8--8--8--8--8\6-6-6\3-3-3--|
E---------------------------------------------------------------------|
Solo:

guitar 1
e-------------------------------------------------------------------|
B-------------------------------------------------------------------|
G-------------------------------------------------------------------|
D-\12~--10~--12-13b--12-10-8-----10-12~--10~-12-13b--12-10-8--------|
A----------------------------10~-----------------------------8-10---|
E-------------------------------------------------------------------|

guitar 2
e--------------------------------------------------------|
B--------------------------------------------------------|
G--7-7-7\5-5-5\7-7-7\5-5-5\7-7-7\5-5-5-------------------|
D--------------------------------------5-5-5-5-5-5-5-----| x2
A--5-5-5\3-3-3\5-5-5\3-3-3\5-5-5\3-3-3-------------------|
E--------------------------------------3-3-3-3-3-3-3-----|

Bridge?


outtro:

guitar 1
e---------------------------------------------------------------------|
B---------------------------------------------------------------------|
G---------------------------------------------------------------------|
D-12b--10~--12b--10~--12b--10~--12b--10~--12b--10~--12b--10~--12 hold-|
A---------------------------------------------------------------------|
E---------------------------------------------------------------------|

guitar 2
e----------------------------------------------|
B----------------------------------------------|
G--7~\5~\7~\5~\7~\5~\7~\5~\7~\5~\7~\5~ hold----|
D----------------------------------------------| 
A--5~\3~\5~\3~\5~\3~\5~\3~\5~\3~\5~\3~ hold----|
E----------------------------------------------|
Tap to rate this tab
 
# A B C D E F G H I J K L M N O P Q R S T U V W X Y Z