Song name
# A B C D E F G H I J K L M N O P Q R S T U V W X Y Z

Peter Sommer - Endnu En Sommer Er Forbi tab

Sang: Endnu en sommer er forbi
Kunstner: Peter Sommer
Album: P den anden side

Intro:
Powerchords:
  Em           D             C            C       D
-----------------------------------------------------|
-----------------------------------------------------|
--9-9---9-9----7-7---7-7-----5-5---5-5----5-5---5-7--|
--9-9---9-9----7-7---7-7-----5-5---5-5----5-5---5-7--|
--7-7---7-7----5-5---5-5-----3-3---3-3----3-3---3-5--|
-----------------------------------------------------|

Vers:
Powerchords:
Em             D          C     C D
 To kungfu til en kungfus pris
     Em                     D                    C     C  D
For sidste gang i r fryser den glade ggler til is
          C                            D
Det er et vink med en vognstang til frisrerne
           C         C        D
Nu la'r vi hret gro ned over rerne

Omkvd guitar 1:
Normal Chords:
                      Em         H7 (B7)
Endnu en sommer er forbi
                      C          D
Endnu en sommer er forbi

Omkvd guitar 2:
 Em       H7        C         D
(0)----------------(8)-----12-10---------|
-------12-10-----------------------------|
-----------------------------------------|
-----------------------------------------|
-----------------------------------------|
-----------------------------------------|
Tap to rate this tab
# A B C D E F G H I J K L M N O P Q R S T U V W X Y Z