Song name
# A B C D E F G H I J K L M N O P Q R S T U V W X Y Z

Peter Tosh - Legalize It tab

LEGALIZE IT by Peter Tosh

e|5/7---7---|7/5---5---| Repeat a couple times
B|6/8-----8-|8/6-----6-|
G|5/7--7----|7/5--5----|
D|----------|----------|
A|----------|----------|
E|----------|----------|


G and F Barre  Get rhythm from the song. 1-23x4, 1-23x4 and repeat.

Strumming:
|--d--d-u-x-d--d--d-u-x-d--d--d-u-x-d--d--d-u-x-d-|

|-----3-3-x-3-----3-3-x-3-----1-1-x-1-----1-1-x-1-|
|-----4-4-x-4-----4-4-x-4-----2-2-x-2-----2-2-x-2-|
|-----5-5-x-5-----5-5-x-5-----3-3-x-3-----3-3-x-3-|
|-----5-5-x-5-----5-5-x-5-----3-3-x-3-----3-3-x-3-|
|---------x-----------x-----------x-----------x---|
|--3------x----3------x----1------x----1------x---|

Extra:
|-----------------------| Repeat
|-----------------------|
|------4h5p4------2h3p2-|
|--5-5--------3-3-------|
|-----------------------|
|-----------------------|


Great song hope you like it!
Tap to rate this tab
 
# A B C D E F G H I J K L M N O P Q R S T U V W X Y Z