Song name
# A B C D E F G H I J K L M N O P Q R S T U V W X Y Z

Peterpan - Yang Terdalam tab

Yang Terdalam 

Intro :
          B                       E
e|----------------0-|   e|----------------0-|
B|-----4--4--4--4---|   B|-----0--0--0--0---|
G|----4--4--4--4----|   G|----1--1--1--1----|
D|---4--4--4--4-----|   D|---2--2--2--2-----|
A|------------------|   A|------------------|
E|------------------|   E|------------------|

          F#                      B
e|----------------0-|   e|----------------0-|
B|-----2--2--2--2---|   B|-----4--4--4--4---|
G|----3--3--3--3----|   G|----4--4--4--4----|
D|---4--4--4--4-----|   D|---4--4--4--4-----|
A|------------------|   A|------------------|
E|------------------|   E|------------------|




Play it until finish...
There are a Comment?
goto my email(raiyan_ard@yahoo.com) or my Facebook(raiyan_ard@yahoo.com)...

THANK for Peterpan and Sahabat Peterpan

Tap to rate this tab
 
# A B C D E F G H I J K L M N O P Q R S T U V W X Y Z