Song name
# A B C D E F G H I J K L M N O P Q R S T U V W X Y Z

Peterpan - Mimpi Yang Sempurna tab

Help us improve GuitareTab! Take a short survey!
Penyanyi: Peterpan
Judul: Mimpi Yang Sempurna
Album: Kisah 2002 Malam
Tabbed by Christian S. (brizk@web.de)

This is the most requested song, so Ive had to tab it!

 (with Distortion)
e----------------------------------------------------------------|
h----------------------------------------------------------------|
G----------------------------------------------------------------|
D----------------------------------------------------------------|
A--5555-7777-9999-5---7-9-10---9-10----9-1012/10\12/10----------|
E----------------------------8------10------------------10-------|


e----------------------------------------------------------------|
h----------------------------------------------------------------|
G----------------------------------------------------------------|
D------------------------------------------101010-9--------------|
A--7-9-10---9-10----9-1012--5555-7777-999-----------------------|
E---------8------10----------------------------------------------|



Mungkinkah bila ku bertanya pada bintang-bintang
Dan bila ku mulai merasa bahasa
...kesunyian
e------------------------------------------------------------|
h------------------------------------------------------------|
G------------------------------------------------------------|
D------------------------------------------------------------|
A--7-9-10---9-10----9-101210/12/14\12\10-5/7---------------|
E---------8------10------------------------------------------|

Sadarkah aku yang berjalan dalam kehampaan
Terdiam, terpana, terbata semua dalam
...keraguan
(clean sound)
e----7---8---8---7--7---5-10-|
h--5--88---8---8---8--8------|
G----------------------------| 2x
D----------------------------|
A----------------------------|
E----------------------------|


Aku dan semua yang terluka
Karena
Kitaaaaa...
(with Distortion)
e--------------------|
h--------------------|
G--------------------|
D--------------------|
A--5555-7777-9999-5--|
E--------------------|


Aku kan menghilang dalam pekat malam
e------------------------------------------------|
h------------------------------------------------|
G------------------------------------------------|
D------------------------------------------------|
A-----7-9-10---9-10----9-1012/10\12/10----------|
E------------8------10------------------10-------|


Lepas ku melayang
e-----------------------------------------------|
h-----------------------------------------------|
G-----------------------------------------------|
D-----------------------------------------------|
A--7-9-10---9-10----9-101210/12/14\12\10-5/7--|
E---------8------10-----------------------------|


Biarlah ku bertanya pada bintang-bintang
e------------------------------------------------|
h------------------------------------------------|
G------------------------------------------------|
D------------------------------------------------|
A-----7-9-10---9-10----9-1012/10\12/10----------|
E------------8------10------------------10-------|


Tentang arti kita dalam mimpi yang sempurna
e------------------------------------------|
h------------------------------------------|
G------------------------------------------|
D------------------------------------------|
A--7-9-10---9-10----9-1012--5555-7777-999-|
E---------8------10------------------------|



e------------------------------------------------------------|
h------------------------------------------------------------|
G7/9-11-12----------------------------------9----9-11-12----|
D-----------10----10--9-10-12----9-12-9----9---12---------12-|
A--------------10---10--------12--------12-------------------|
E------------------------------------------------------------|


e------------------10101010-12121212-14141414-10-------------|
h--10----10-12-12~-------------------------------12~---------|
G-----12-----------------------------------------------------|
D------------------------------------------------------------|
A------------------------------------------------------------|
E------------------------------------------------------------|





...  sempurnaaaaaaaaaaaaaaaaaaaaaa-ah!
e------------------------------------------------|
h------------------------------------------------|
G------------------------------------------------|
D------------------------------------------------|
A--5555-7777-9999-10101010-12121212-7------------|
E------------------------------------------------|

-end of tab.
Related for Mimpi Yang Sempurna tab