Song name
# A B C D E F G H I J K L M N O P Q R S T U V W X Y Z

Peterpan - Mungkin Nanti tab

-----------------------------------------------------------------------------
			     Mungkin Nanti(solo guitar) - Peterpan
-----------------------------------------------------------------------------
Tabbed by: Gilang Jalu
Email	: gilangjalu@plasa.com
Song title	: Mungkin Nanti(Solo Guitar)
Band	: Peterpan
Album	: Bintang di Surga

 
Tuning:Standard Tuning
       E,A,D,G,B,e


e||------------------------------------9------------------|
B||----------------------------------------12---10-10-----|
G||-------------9-----------------9-9---------------------|
D||-----9--11------9------11-11---------------------------|
A||-------------------------------------------------------|
E||-------------------------------------------------------|


e|--------------------------------------------------------|
B|-----------------9--------------------------------------|
G|-----9------9-11---11-------9-9-9-----------------------|
D|---------11--------------------------12--11--9--11--7---|
A|--------------------------------------------------------|
E|--------------------------------------------------------|


e|----12-12-12----10---9--------9-------------------------------------------
B|-------------------------12-------10------------10--12--14--12--10--12----
G|-----------------------------------------9--11----------------------------
D|--------------------------------------------------------------------------
A|--------------------------------------------------------------------------
E|--------------------------------------------------------------------------


e|---------16---------14---------14-16-17-19-17-16~~~~~~~--------||
B|-----17------17-17------17-17----------------------------------||
G|---------------------------------------------------------------||
D|---------------------------------------------------------------||
A|---------------------------------------------------------------||
E|---------------------------------------------------------------||
  
Saya sangat membutuhkan saran dan kritik dari teman-teman. saran dan kritik bisa 
teman-teman kirim melalui e-mail.			       

| /  slide up
| \  slide down
| h  hammer-on
| p  pull-off
| ~  vibrato
| +  harmonic
| x  Mute note
============================================================================
Tap to rate this tab
# A B C D E F G H I J K L M N O P Q R S T U V W X Y Z