Song name
# A B C D E F G H I J K L M N O P Q R S T U V W X Y Z

Petra - More Than A Thousand Words tab

            Petra  more than a thousand words solo
                    From the album No doubt



By Sanjeev George and Thomas George

Contact at sanjeevgeorge123@yahoo.co.in


e|----------------------------------------------------------------------------|
B|--10---10v-----8p7-8p7--------------15-15-15\13--13-13-13\12---12-12-12\10--|
G|-----------------------9p7--/7v---------------------------------------------|
D|----------------------------------------------------------------------------|
A|----------------------------------------------------------------------------|
E|----------------------------------------------------------------------------|


e|---------------------------------------------------------------------------|
B|-10p8-10v--------------------------------17b20---17b20r1715v------15v-----|
G|------------9h11p9\7-----7---7v-----7/19------------------------16---------|
D|-----------------------9---9-----------------------------------------------|
A|---------------------------------------------------------------------------|
E|---------------------------------------------------------------------------|


e|---------------------------------------------------------------------------|
B|-------------------15v-----------15-------15-------15-------15-------------|
G|-11-12-14v---11-12---------11-12----11-12----11-12----11-12----14-12-12v---|
D|---------------------------------------------------------------------------|
A|---------------------------------------------------------------------------|
E|---------------------------------------------------------------------------|


Please rate
Tap to rate this tab
# A B C D E F G H I J K L M N O P Q R S T U V W X Y Z