Song name
# A B C D E F G H I J K L M N O P Q R S T U V W X Y Z

Petty Tom - Into The Great Wide Open tab

BY NEIL BONIFACE

INTRO LEAD
----------------|
--15^-----------|
------14^-12-14-|
----------------|
----------------|
----------------|

INTRO/VERSE
----------------------------------3-3-3------------------|
----------------------------------3-3-3----1-1-1---------|
----------------------------------0-0-0----0-0-0---------|
--2-2-2-2-2-1-1-1-1---xALOT-THEN--0-0-0----2-2-2---------|
--2-2-2-2-2-2-2-2-2---------------2-2-2----3-3-3---------|
--0-0-0-0-0-0-0-0-0---------------3-3-3------------------|
VERSE LEAD
-----------------------|
--------0----------0---|
------0---0------0---0-|
--2----------1---------|
--2----------2---------|
-----------------------|
'SHE HAD A GUITAR..'
C Am C Am

PRE CHOURS
G C G C D

CHOURS
G C Am

INTERLUDE
------------------------------------------------------------------|
--------12--15^---15^-12-15-15------------------------------------|
-12--14------------------------12h14------------------------------|
--------------------------------------------12-14-----------------|
--------------------------------------12/14-------14^-12-14-12----|
---------------------------------------------------------------14-|
Tap to rate this tab
# A B C D E F G H I J K L M N O P Q R S T U V W X Y Z