Song name
# A B C D E F G H I J K L M N O P Q R S T U V W X Y Z

Petty Tom - Learning To Fly tab

Help us improve GuitareTab! Take a short survey!
Band:  stratovarius
Album: elements part 1
Song:  learning to fly

Transcribed By: Toto
Email:          anonymus_13@hotmail.com


.  - palm mute           /  - slide up to
\  - slide down to       ~  - vibrato
h  - hammer on           b  - Bend
p  - pull off            Suffixes for bend
t  - tap                 f  - full bend    h - half bend
ph - pinched harmonic    q  - quarter bend t - tap bend
*  - see comment         ^  - Hold bend    r release bend
x  - Stuccatto           ~  - vibrato bend
,  - slight palm mute    () - ghost note, sustained note
"  - tremolo note        <> - Trill

Intro:

   KEYBOARD PART (2x)
|---------------------------9-9-10-9--------------------------------------
|--10-12-9-12-10-9-10-10-12----------12-10-9-12-10-9-10-10-12-9-12-10-9-10
|-------------------------------------------------------------------------
|-------------------------------------------------------------------------
|-------------------------------------------------------------------------
|-------------------------------------------------------------------------

|------9-9-10-12----------------------------------------------------|
|10-12-----------12-10-9-12h10h9h7\5\3--5-3-2-0-2-3-0---------------|
|-------------------------------------------------------------------|
|-------------------------------------------------------------------|
|-------------------------------------------------------------------|
|-------------------------------------------------------------------|
 
guitar (2x)
|-----------------------------------------------------------------------|
|-----------------------------------------------------------------------|
|---------------------9-9-------------------9-9-------------------------|
|--9----7---5-5--7-7--9-9---9--7--5-5---7---9-9--9--7--5----------------|
|--9----7---5-5--7-7--7-7---9--7--5-5---7---7-7--9--7--5----------------|
|--7----5---3-3--5-5--------7--5--3-3---5--------7--5--3---5-3-2-0------|

(2x) CHORUS:
|--------------------------------------------------------------------------
|--------------------------------------------------------------------------
|--------------------------------------------------------------------------
|--9----9-----9-----9-----9-------9---7-----5-----5-----5-----5----5----5--
|--9----9-----9-----9-----9-------9---7-----5-----5-----5-----5----5----5--
|--7-7777-77777-77777-77777--777777---55555-3-33333-33333-33333-3333-3333--

|-------------------------------------------------------------------------------
|-------------------------------------------------------------------------------
|-------------------------------------9------9------9------9-----9-----9--------
|-7-----7-----7------7------7------7--7------7------7------7-----7-----7--9-7-5-
|-7-----7-----7------7------7------7--7-777777-777777-777777-77777-77777--7-7-5-
|-5-55555-55555-555555-555555-555555--------------------------------------7-5-3-

----------|
----------|
----------|
----------|
----------|
--5-3-2-0-|

|-19-17-16----17-16-------16----------------------------------------|
|----------19-------19-17----19-17-16----17-16------16--------------|
|-------------------------------------18------18-17----18-17-15-----|
|-------------------------------------------------------------------|
|-------------------------------------------------------------------|
|-------------------------------------------------------------------|

                              FIRST VERSE 
ALL NOTES REPEAT 4 TIMES
|------|------|---------|---------|
|------|------|---------|---------|
|------|------|---------|---------|
|-5-5-5|-7-7-7|-10-10-10|-12-12-12|
|------|------|---------|---------|
|------|------|---------|---------|

|-----------------------------------------------------------------------------|
|-----------------------------------------------------------------------------|
|-----------------------------------------------------------------------------|
|--------------------------------------2--22222222222--2----------------------|
|-0-0---2h3h2-3--2-2-3h5h3-5--3-3---5--------------------5--3-2-5-3-2-0-------|
|-----------------------------------------------------------------------------|


(2x) CHORUS:
|--------------------------------------------------------------------------
|--------------------------------------------------------------------------
|--------------------------------------------------------------------------
|--9----9-----9-----9-----9-------9---7-----5-----5-----5-----5----5----5--
|--9----9-----9-----9-----9-------9---7-----5-----5-----5-----5----5----5--
|--7-7777-77777-77777-77777--777777---55555-3-33333-33333-33333-3333-3333--

|--------------------------------------------------------------------------------
|--------------------------------------------------------------------------------
|-------------------------------------9------9------9------9-----9-----9---------
|-7-----7-----7------7------7------7--7------7------7------7-----7-----7--9-7-5--
|-7-----7-----7------7------7------7--7-777777-777777-777777-77777-77777--9-7-5--
|-5-55555-55555-555555-555555-555555--------------------------------------7-5-3--

|----------|
|----------|
|----------|
|----------|
|----------|
|--5-3-2-0-|

|-19-17-16----17-16-------16----------------------------------------|
|----------19-------19-17----19-17-16----17-16------16--------------|
|-------------------------------------18------18-17----18-17-15-----|
|-------------------------------------------------------------------|
|-------------------------------------------------------------------|
|-------------------------------------------------------------------|

ALL NOTES REPEAT 4 TIMES
|------|------|---------|---------|
|------|------|---------|---------|
|------|------|---------|---------|
|-5-5-5|-7-7-7|-10-10-10|-12-12-12|
|------|------|---------|---------|
|------|------|---------|---------|

|-----------------------------------------------------------------------------|
|-----------------------------------------------------------------------------|
|-----------------------------------------------------------------------------|
|--------------------------------------2--22222222222--2----------------------|
|-0-0---2h3h2-3--2-2-3h5h3-5--3-3---5--------------------5--3-2-5-3-2-0-------|
|-----------------------------------------------------------------------------|


(2x) CHORUS:
|--------------------------------------------------------------------------
|--------------------------------------------------------------------------
|--------------------------------------------------------------------------
|--9----9-----9-----9-----9-------9---7-----5-----5-----5-----5----5----5--
|--9----9-----9-----9-----9-------9---7-----5-----5-----5-----5----5----5--
|--7-7777-77777-77777-77777--777777---55555-3-33333-33333-33333-3333-3333--

|--------------------------------------------------------------------------------
|--------------------------------------------------------------------------------
|-------------------------------------9------9------9------9-----9-----9---------
|-7-----7-----7------7------7------7--7------7------7------7-----7-----7--9-7-5--
|-7-----7-----7------7------7------7--7-777777-777777-777777-77777-77777--9-7-5--
|-5-55555-55555-555555-555555-555555--------------------------------------7-5-3--

|----------|
|----------|
|----------|
|----------|
|----------|
|--5-3-2-0-|

|-------------------------------------------------------------------|
|-------------------------------------------------------------------|
|-------------------------------------------------------------------|
|0-0-222222222222-0-0--22222222222--2-------------------------------|
|-------------------------------------5-3-2-5-3-2-0-----------------|
|-------------------------------------------------------------------|

SOLO   

 SORRY I DIDNīT WORK IN THE SOLO 


|-------------------------------------------------------------------|
|-------------------------------------------------------------------|
|-------------------------------------------------------------------|
|0-0-222222222222-0-0--22222222222--2-------------------------------|
|-------------------------------------5-3-2-5-3-2-0-----------------|
|-------------------------------------------------------------------|
         
(4x) CHORUS:
|--------------------------------------------------------------------------
|--------------------------------------------------------------------------
|--------------------------------------------------------------------------
|--9----9-----9-----9-----9-------9---7-----5-----5-----5-----5----5----5--
|--9----9-----9-----9-----9-------9---7-----5-----5-----5-----5----5----5--
|--7-7777-77777-77777-77777--777777---55555-3-33333-33333-33333-3333-3333--

|--------------------------------------------------------------------------------
|--------------------------------------------------------------------------------
|-------------------------------------9------9------9------9-----9-----9---------
|-7-----7-----7------7------7------7--7------7------7------7-----7-----7--9-7-5--
|-7-----7-----7------7------7------7--7-777777-777777-777777-77777-77777--9-7-5--
|-5-55555-55555-555555-555555-555555--------------------------------------7-5-3--

|----------|
|----------|
|----------|
|----------|
|----------|
|--5-3-2-0-|


 (4x)                                 (4x)
|----------------------------------|---------------------------------|
|----------------------------------|---------------------------------|
|----------------------------------|---------------------------------|
|0-0-222222222222-0-0--22222222222-|-2-------------------------------|
|----------------------------------|---5-3-2-5-3-2-0-----------------|
|----------------------------------|---------------------------------|

Related for Learning To Fly tab