Song name
# A B C D E F G H I J K L M N O P Q R S T U V W X Y Z

Petty Tom - Time To Move On tab

Time To Move On
Pist
Tab By: Mike M
E-Mail Rckin213@mindspring.com

Standerd Tunning

Whole Song is played distorted.
*=Let note Ring

intro
                                          Only on the 4th time play this intead of 79999
||----------------------------------------------|---------------------||
||----------------------------------------------|---------------------||
||----------------------------------------------|---------------------||
||----7-7-7-------------------------------------|---------------------||
||-5------------7-7-7-7---5-5-5---9-9-9-9-------|---------------------||
||------------5---------3-------7---------------|--7-6----------------||
 
 
Verse
 
||--------------------------------------------------------||
||--------------------------------------------------------||
||--------------------------------------------------------||
||--77777-------------------------------------------------|| (x4)
||--55555--777777--55555--999999--------------------------||
||---------555555--33333--777777--------------------------||
 
 
Chorous
 
||------------------------------------------------------------------||
||------------------------------------------------------------------||
||------------------------------------------------------------------||
||-------7-7---9-9---7-7--------------------------------------------|| (x4)
||--7-7--5-5---7-7---5-5--------------------------------------------||
||--5-5-------------------------------------------------------------||
 
Verse
 
||---------------------------------------------------------||
||---------------------------------------------------------||
||---------------------------------------------------------||
||--77777--------------------------------------------------|| (x4)
||--55555--777777--55555--999999---------------------------||
||---------555555--33333--777777---------------------------||
 
Bridge
 
||-----------------------------------------------------||
||-----------------------------------------------------||
||-----------------------------------------------------||
||-------9999--------7777--------5555---7777---8--7----|| (x2)
||-9999--7777--7777--5555--5555--3333---5555---6--5----||
||-7777--------5555--------3333------------------------||
 
Chorous
 
||------------------------------------------------------||
||------------------------------------------------------||
||------------------------------------------------------||
||-------7-7---9-9---7-7--------------------------------|| (x4)
||--7-7--5-5---7-7---5-5--------------------------------||
||--5-5-------------------------------------------------||
 
outro
 
||-----------------------------------------------------||
||-----------------------------------------------------||
||-----------------------------------------------------||
||-------7-7---9-9---7-7-------------------------------|| (x8) very fast
||--7-7--5-5---7-7---5-5-------------------------------||
||--5-5------------------------------------------------||
 
||---------------------------------------------------------||
||---------------------------------------------------------||
||---------------------------------------------------------||
||--77777--------------------------------------------------|| (x4)
||--55555--777777--55555--999999*--------------------------||
||---------555555--33333--777777*--------------------------||  *only on 4th time
 
*=Let not ring
Tap to rate this tab
# A B C D E F G H I J K L M N O P Q R S T U V W X Y Z