Song name
# A B C D E F G H I J K L M N O P Q R S T U V W X Y Z

Petty Tom - Last Dance With Mary Jane tab

Am               G           D           Am 
-0---0-x-x-x-x-x-------------2-x-x-x-x-x-0-------------
-0h1-1-x-x-x-x-x-3-x-x-x-x-x-3-x-x-x-x-x-1-------------
-0h2-2-x-x-x-x-x-0-x-x-x-x-x-2-x-x-x-x-x-2-------------
-0h2-2-x-x-x-x-x-0-x-x-x-x-x-0-x-x-x-x-x-2-------------
-0---------------2-x-x-x-x-x---------------------------
-------------------------------------------------------


-0---3-x-x-x-x-x-------------2-x-x-x-x-x-0-------------
-0h1-1-x-x-x-x-x-3-x-x-x-x-x-3-x-x-x-x-x-1-------------
-2---2-x-x-x-x-x-0-x-x-x-x-x-2-x-x-x-x-x-2-------------
-2---2-x-x-x-x-x-0-x-x-x-x-x-0-x-x-x-x-x-2-------------
-----------------2-x-x-x-x-x---------------------------
-------------------------------------------------------

-0---0---x-x-x-x-x---------------2h3-x-x-x-x-x-0-------
-0h1-1p0-x-x-x-x-x-3---x-x-x-x-x-3---x-x-x-x-x-1-------
-2---2---x-x-x-x-x-0---x-x-x-x-x-2---x-x-x-x-x-2-------
-2---2---x-x-x-x-x-0---x-x-x-x-x-0---x-x-x-x-x-2-------
-------------------2p0-x-x-x-x-x-----------------------
-------------------------------------------------------

Just play softly after the singing starts. Like a palm mute.

0:58
-0---3-0-x-x-x-x-x-------------3-0-x-x-x-x-x-0---------
-0h1-1-1-x-x-x-x-x-3-x-x-x-x-x-3-2-x-x-x-x-x-1---------
-2---2-2-x-x-x-x-x-0-x-x-x-x-x-2-3-x-x-x-x-x-2---------
-2---2-2-x-x-x-x-x-0-x-x-x-x-x-0-0-x-x-x-x-x-2---------
-------------------2-x-x-x-x-x-------------------------
-------------------------------------------------------

Later I will figure out the solos.




 
Tap to rate this tab
# A B C D E F G H I J K L M N O P Q R S T U V W X Y Z