Song name
# A B C D E F G H I J K L M N O P Q R S T U V W X Y Z

Pez - Ultimo Acto tab

Help us improve GuitareTab! Take a short survey!
PEZ Official Website: http://www.pezdebuenosaires.com.ar

                "ltimo Acto", PEZ
_____________________________________________________

Tabbed by: Sebastin Ara.
Buenos Aires, Argentina, 2009.
Email MSN: playing.the.angel_@hotmail.com
_____________________________________________________
*Tuning: EADGBe (Standard)
*Difficulty: Intermediate/Advanced
*References:
p = Pull Off
h = Hammer On
b = bend
br = bend & release
/ = Slide
() = Ghost Note
* = Armnico
_____________________________________________________
INTRO:
e|--------------------------------------------------|
B|--------------------------------------------------|
G|-2-2-222-3-3-333-5-5-555-(5)/8-x-7-x-5-x----x-5-2-|
D|-2-2-222-3-3-333-5-5-555-(5)/8-x-7-x-5-x--5-x-5-2-|
A|-0-0-000-1-1-111-3-3-333-(3)/6-x-5-x-3-x--5-x-3-0-|
E|------------------------------------------3-------|

GUITARRA SEGUNDA (estos riffs no se escuchan con volumen muy alto):
e|------------------------------------------------------------------|
B|------------8p7----------------------------------8/10-8-5*h8------|
G|--------7h9----9p7----------------------------/5------------------|
D|7h8h10-----------10p9p8--------------------------------------7----|
A|------------------------------------------------------------------|
E|------------------------------------------------------------------|
 [se hace muy rpido     ]

RIFF INTERMEDIO (Es una boluds, prcticamente le guitarrista juega en pentatnica menor 
La):
e|------------------------|
B|------------------------|
G|---5--7b8br5---5h7------|
D|-------------------7----|
A|------------------------|
E|------------------------|

GUITARRA SEGUNDA:
e|------------------------------------------------------------------|
B|------------8p7----------------------------------8/10-8-5*h8------|
G|--------7h9----9p7----------------------------/5------------------|
D|7h8h10-----------10p9p8--------------------------------------7----|
A|------------------------------------------------------------------|
E|------------------------------------------------------------------|
(s, repite los mismos riffs del principio otra vez)

>VERSOS:
 F             E           Am
"  Ir a donde nadie te conozca,
F          E               Am
  Un nuevo diextra que ocultar.
G#    G     F7  -E  (silencio)
  Sin decir nada...

Te vas"

>INTRO de nuevo

>VERSOS: (Misma progresin de acordes de antes)
"Son otros vientos los que pujan.
Con todo no hay ms guerras que pelear,
Ya todo dicho....

Y te vas"

>INTRO de nuevo

>Viene como un BREAK tipo psicodlico ac, con un solo de rgano, y la guitarra y bajo haciendo:

GUITARRA BASE (con strumming rpido!):
e|----------------|
B|----------------|
G|----------------|
D|----------------|
A|----------------|
E|-6-9--5-8--3-4--|

ACOMPAAMIENTO DE BAJO:
G|----------------|
D|----------------|
A|----------------|
E|-6-9--5-8--3-4--|


SOLO:
e|---------------------------------------------|
B|---------------------------------------------|
G|---------------------------------------------|
D|--------------5------------------------------|
A|-5-5/7--5h7h8---7-------5-5/7--5-3/5p3p1p0---|
E|---------------------------------------------|
[      r e p i t e                            ]
Related for Ultimo Acto tab