Song name
# A B C D E F G H I J K L M N O P Q R S T U V W X Y Z

Pezz - M And M tab

Ok, I when I tried to play this, I was so surprised that I wasn't in the archive, that I
and tabbed it myself.

*****************************************************************************
M & M

Artist: Pezz/Billy Talent
Album: Watoosh!
Tabbed by: antman1385
*****************************************************************************

SONG PARTS

*****************************************************************************

PRE - VERSE

E|----3-3-3----------|
B|----3-3-3----------|
G|----3-3-3----------|
D|-------------------|
A|-------------------|
D|-------------------|


VERSE

E|----333----666----222----555----333----111----000----222--|
B|----333----888----333----777----444----333----111----333--|
G|----333----777----222----777----555----333----222----222--|
D|----------------------------------------------------------|
A|----------------------------------------------------------|
D|----------------------------------------------------------|


PRE - CHORUS

E|----2------0----------|---0--------|-----3-------------|
B|----3------0----------|---8--------|-----5-------------|
G|----4------0----------|---5---(x16)|-----5--(x16)------|
D|----4------2----------|---7--------|-----3-------------|
A|----2------2----------|---0--------|-----0-------------|
D|-----------2----------|------------|-------------------|


CHORUS

E|----3--5--7-7--88888888--77777777--00000000-------|
B|----3--5--7-7--88888888--77777777--00000000-------|
G|----4--5--7-7--99999999--77777777--00000000-------|
D|--------------------------------------------------|
A|--------------------------------------------------|
D|--------------------------------------------------|


PRE - BRIDGE

E|--7----5----3----2----5------------3--5--7--8--7--5--|
B|--7----5----3----3----5------------3--5--7--8--7--5--|
G|--7----5----4----4----5------------4--5--7--9--7--5--|
D|--9----7----5----4----7------------5--7--9--10-9--7--|
A|-----------------------------------------------------|
D|-----------------------------------------------------|


BRIDGE/OUTRO

E|--|--3--|--2--|--2--|--3--|--4--|--3--|--0--|--2--|--|
B|--|--5--|--2--|--3--|--3--|--6--|--3--|--2--|--3--|--|
G|--|--4--|--3--|--4--|--4--|--6--|--4--|--3--|--4--|--|   (each chord played)
D|--|--2--|--4--|--4--|--5--|--6--|--5--|--4--|--4--|--|   (8 times)
A|--|-----|-----|-----|-----|-----|-----|-----|-----|--|
D|--|-----|-----|-----|-----|-----|-----|-----|-----|--|

*****************************************************************************

SONG STRUCTURE

*****************************************************************************

PRE-VERSE(x12)
VERSE(x4)
PRE-CHORUS
CHORUS(x4)
PRE-VERSE(x8)
VERSE(x4)
PRE-CHORUS
CHORUS(x4)
BRIDGE/OUTRO(x7)

NOTES:
   - When the verse is repeated for the fourth time, the last two chords are replaced with
              E|------------2--|
              B|------2-----1--|
              G|----0---0---2--|
              D|--2------------|
              A|---------------|
              D|---------------|

   - When the bridge/outro is repeated for the fifth time, the first two chords are 
only once.

   - When the bridge/outro is repeated for the fifth time, all chords are played only once,
and the last two are played much slower than the rest of the song.

*****************************************************************************

ENJOY THE TAB!!!
Tap to rate this tab
# A B C D E F G H I J K L M N O P Q R S T U V W X Y Z