Song name
# A B C D E F G H I J K L M N O P Q R S T U V W X Y Z

Pezz - Bird In The Basement tab

Pezz - Bird in the Basement
Album: Watoosh!
Standard Tuning

-=Intro=-

e|-------------------------------------------------------------------|
B|------------------------------------------------------------3---5--|
G|------------------------5-5-x-7--7-7-7-----------------------------|
D|----------7--5--4-5-4---5-5-x-7--7-7-7----5-6-7--7---2----2-2-2-2--|
A|------3-7----5--4-5-4---3-3-x-5--5-5-5----5-6-7--7---2----2-2-2-2--|
E|--3-5--------3--2-3-2-------------------0-3-4-5--5---0----0-0-0-0--|x2

e|---------------------------------------------------------------------|
B|--------------------------------------------------------------3---5--|
G|--------------------------5-5-x-7--7-7-7-----------------------------|
D|----------7--5-5--4-5-4---5-5-x-7--7-7-7----5-6-7--7---2----2-2-2-2--|
A|------3-7----5-5--4-5-4---3-3-x-5--5-5-5----5-6-7--7---2----2-2-2-2--|
E|--3-5--------3-3--2-3-2-------------------0-3-4-5--5---0----0-0-0-0--|x2

-=Verse=-

Play 4 times
e|----5------3----3------1----5------5-------5--------4---------------|
B|----5------1----3------3----6------5-------5--------4---------------|
G|----5----0------4----2------5----5------6---------5-----------------|
D|------------------------------------------------6-------------------|
A|--------------------------------------------------------------------|
E|--------------------------------------------------------------------|

The last 2 times you play this verse, this is also heard at the end
e|------13-12---12---|
B|----13------13-----|
G|--14---------------|
D|-------------------|
A|-------------------|
E|-------------------|

-=Chorus=-

e|-----------------------------------------------------2------------|
B|--------x--5-5-4-3-2---------------------3-(3)---------3----------|
G|--4-(4)-x--x-x-x-x-x---2-(2)-------------4-(4)-----4--------------|
D|--3-(3)-x--7-7-6-5-4---2-(2)-------------4-(4)---4--------2-(2)---|
A|--3-(3)----------------0-(0)-0-2-3-2-0---2-(2)-2----------2-(2)---|
E|--1-(1)---------------------------------------------------0-(0)---|

e|--------------------|
B|--------------------|
G|--------------------|
D|--2-2-2-2-2-2-2-2---|
A|--2-2-2-2-2-2-2-2---|
E|--0-0-0-0-0-0-0-0---|
PM  * * * * * * * *

e|-----------------------------------------------------2-----|
B|--------x--5-5-4-3-2---------------------3-(3)---------3---|
G|--4-(4)-x--x-x-x-x-x---2-(2)-------------4-(4)-----4-------|
D|--3-(3)-x--7-7-6-5-4---2-(2)-------------4-(4)---4---------|
A|--3-(3)----------------0-(0)-0-2-3-2-0---2-(2)-2-----------|
E|--1-(1)----------------------------------------------------|

e|-----------------------------|
B|-----------------------------|
G|-----------------------------|
D|--2-2-2-2-2-2-2-2-2-2-2-2-2--|
A|--2-2-2-2-2-2-2-2-2-2-2-2-2--|
E|--0-0-0-0-0-0-0-0-0-0-0-0-0--|
PM  * * * * * * * * * * * * *

-=Pre-Verse=

e|----------------------------------------------------------------|
B|---------------------------------------------------------3---5--|
G|---------------------5-5-x-7--7-7-7-----------------------------|
D|-------7--5--4-5-4---5-5-x-7--7-7-7----5-6-7--7---2----2-2-2-2--|
A|---3-7----5--4-5-4---3-3-x-5--5-5-5----5-6-7--7---2----2-2-2-2--|
E|-5--------3--2-3-2-------------------0-3-4-5--5---0----0-0-0-0--|

e|-------------------------------------------------------------------|
B|------------------------------------------------------------3---5--|
G|------------------------5-5-x-7--7-7-7-----------------------------|
D|----------7--5--4-5-4---5-5-x-7--7-7-7----5-6-7--7---2----2-2-2-2--|
A|------3-7----5--4-5-4---3-3-x-5--5-5-5----5-6-7--7---2----2-2-2-2--|
E|--3-5--------3--2-3-2-------------------0-3-4-5--5---0----0-0-0-0--|

-=Verse 2=-

Same as Verse 1

-=Chorus 2=-

Same as Chorus 1 except play this at the end instead
e|---------------------------------------------------|
B|---------------------------------------------------|
G|---------------------------------------------------|
D|--2-2-2-2-2-2-2-2-2-2-2-2-2-2-2-2-2-2-2-2-2-2-2-2--|
A|--2-2-2-2-2-2-2-2-2-2-2-2-2-2-2-2-2-2-2-2-2-2-2-2--|
E|--0-0-0-0-0-0-0-0-0-0-0-0-0-0-0-0-0-0-0-0-0-0-0-0--|
PM  * * * * * * * * * * * * * * * * * * * * * * * *

e|--------------------|
B|--------------------|
G|--9999999999999999--|
D|--9999999999999999--|
A|--7777777777777777--|
E|--------------------|

-=Outro=-

Play this 5 times
e|------------------------------------------------------|
B|------------------------------------------------------|
G|--2--2--2-2-2-2--2-2--2--2--2--2--2-2-2-2--2-2--2--2--|
D|--3--3--3-3-3-3--3-3--3--3--2--2--2-2-2-2--2-2--2--2--|
A|--3--3--3-3-3-3--3-3--3--3--0--0--0-0-0-0--0-0--0--0--|
E|--1--1--1-1-1-1--1-1--1--1----------------------------|

e|------------------------------------------------------|
B|------------------------------------------------------|
G|--4--4--4-4-4-4--4-4--4--4----------------------------|
D|--4--4--4-4-4-4--4-4--4--4--2--2--2-2-2-2--2-2--2--2--|
A|--2--2--2-2-2-2--2-2--2--2--2--2--2-2-2-2--2-2--2--2--|
E|----------------------------0--0--0-0-0-0--0-0--0--0--|


Then Play
e|------------------------------------------------------------------|
B|------------------------------------------------------------------|
G|--2--2--2-2-2-2--2-2--------------2--2--2-2-2-2--2-2--------------|
D|--3--3--3-3-3-3--3-3--------------2--2--2-2-2-2--2-2--------------|
A|--3--3--3-3-3-3--3-3--------2--3--0--0--0-0-0-0--0-0--0--2--3--2--|
E|--1--1--1-1-1-1--1-1--3--5----------------------------------------|

e|------------------------------------------------------------------|
B|------------------------------------------------------------------|
G|--4--4--4-4-4-4--4-4--4-4--4-4-4-4--------------------------------|
D|--4--4--4-4-4-4--4-4--4-4--4-4-4-4--2-2-2-2-2-2-2-2-2-2-2-2-2-----|
A|--2--2--2-2-2-2--2-2--2-2--2-2-2-2--2-2-2-2-2-2-2-2-2-2-2-2-2-----|
E|------------------------------------0-0-0-0-0-0-0-0-0-0-0-0-0-----|
                                      * * * * * * * * * * * * 

e|---------------------------------------|
B|---------------10----10----10----10----|
G|---------------12br--12br--12br--12b---|
D|-----------7---------------------------|
A|-----3--7------------------------------|
E|--5------------------------------------|

That's it

Any feedback or suggestions leave a comment.
Tap to rate this tab
# A B C D E F G H I J K L M N O P Q R S T U V W X Y Z