Song name
# A B C D E F G H I J K L M N O P Q R S T U V W X Y Z

Pflasterstein - Our Village tab

===========
Our Village
===========

Intro (5x)
e|---------------------------------------------------|
h|------5----------7----------3----------5--------5--|
G|----7---7------9---9------5---5------3---3---3-----|
D|--7-------7--9-------9--5-------5--5-------5-------|
A|---------------------------------------------------|
E|---------------------------------------------------|


D / E / C / C7
I wanna fly in the sky like a bird
You know I wanna big fly to you
Where ever you are I want to fly to you
'Cause I promise you that we together


Am / G / F
Please don't go away
You know that we together


Am / C / F (Mundharmonika 2x)


Hm / A / G (2x)
Because I need you


Solophase (3x)
D / E / C / C7
Mundharmonika


D / E / C / C7
Now I can't keep this feeling inside of me
And sometimes I fly over our village
There is a wonderful cloud to see every times
I can't belive behind the cloud a girl like you


Am / G / F
Please don't go away
You know that we together


Hm / A / G (2x)
Because I need you


Outro
e|--10---9---6---4---3---2----------------------|
h|--x----x---x---x---x---x----------------------|
G|--x----x---x---x---x---x---1-~~~~~~~~~~~~~~~--|
D|--x----x---x---x---x---x---2-~~~~~~~~~~~~~~~--|
A|--9----8---5---3---2---1---2-~~~~~~~~~~~~~~~--|
E|--10---9---6---4---3---2----------------------|
Tap to rate this tab
# A B C D E F G H I J K L M N O P Q R S T U V W X Y Z