Song name
# A B C D E F G H I J K L M N O P Q R S T U V W X Y Z

Pfm - Il Testamento Di Tito tab

|-10--10p9------| x4
|----------10---|
|-------------9-|
|---------------|
|---------------|
|---------------|


|-10--10p9------9p7---8p7-5-------------5-----------------| x2
|----------10-------8-------7---5---5-8---7-----------8h7-|
|-------------9---------------7---7---------7-------7-----|
|---------------------------------------------5-7p8-------|
|---------------------------------------------------------|
|---------------------------------------------------------|


By Andrea Mor
Tap to rate this tab
 
# A B C D E F G H I J K L M N O P Q R S T U V W X Y Z