Song name
# A B C D E F G H I J K L M N O P Q R S T U V W X Y Z

Phaeleh - In The Twilight tab

Track 1
     E   E  E  E   E  E  E   E     E  E    E  E   E    E  Q     
E||-----------------------------|------------------------------|
B||--7s--8-----8s--7-----7s--8--|-----8s--10-----10s--12-------|
G||---------9---------9---------|--9----------9-----------9----|
D||-----------------------------|------------------------------|
A||-----------------------------|------------------------------|
E||-----------------------------|------------------------------|


  E   E  E  E   E  E  E   E     E  E   E  E  Q    Q      
-----------------------------|-------------------------||
--7s--8-----8s--7-----7s--5--|-----5s--3---------------||
---------9---------9---------|--9---------4--7----9----||
-----------------------------|-------------------------||
-----------------------------|-------------------------||
-----------------------------|-------------------------||




Duration Legend
---------------
Q - quarter
E - 8th
. - note dotted


Tablature Legend
----------------
s - legato slide

Link to band: http://www.facebook.com/Phaeleh
Tap to rate this tab
# A B C D E F G H I J K L M N O P Q R S T U V W X Y Z