Song name
# A B C D E F G H I J K L M N O P Q R S T U V W X Y Z

Phair Liz - Glory tab

-------------------------------------------------------------------------------
			     GLORY - Liz Phair
-------------------------------------------------------------------------------
Tabbed by: Magnus Earwig

Tuning: standard, one whole step down (DGCFAd) for version on Exile In Guyville album

Liz Phair also plays this song in standard (EADGBe) tuning live

Intro, verse, and post-chorus

d|---------------0------------3-----------------------------|
A|--2--3h5--3p2--0--3h5--3p2--3--0-(2)----------------------|
F|--2--2----2----0------------0--2--------------------------|
C|--2--2----2----2------------0--2-(0)----------------------|
G|--0--0----0----2------------2--0--------------------------|
D|---------------0------------3--2--------------------------|

Chorus

"You are… you are"        "Shining some glory"

d|----------------------------------|
A|-----------------------------2----|
F|--7----6---------5--------0--2----|
C|--5----7---------3--------0--0----|
G|--7----0---------3--------2--0----|
D|--5--------------5--------3--2----|

End in Em

| h  hammer-on
| p  pull-off
===============================================================================
Tap to rate this tab
# A B C D E F G H I J K L M N O P Q R S T U V W X Y Z