Song name
# A B C D E F G H I J K L M N O P Q R S T U V W X Y Z

Phair Liz - Fuck And Run tab

-----------------------------------------------------------------
Fuck and Run - Liz Phair
-----------------------------------------------------------------
Tabbed by: Chris
Email: bbzzdd@yahoo.com
Date: 5/12/2007

I knew most versions on the web were wrong so I watched her on 
YouTube and tabbed it out exactly how she plays it.  

On the album she does not hit the high strings on all the chords 
so use your ears.

    D    A    F#m  G        D    A    Bm   G
e|--2----0----2----3--------5----5----7----10--------------------|
B|--3----2----2----3--------7----5----7----12--------------------|
G|--2----2----2----4--------7----6----7----12--------------------|
D|--0----2----4----5--------7----7----9----12--------------------|
A|-------0----4----5--------5----7----9----10--------------------|
E|------------2----3-------------5----7--------------------------|
    I woke up alarmed...   Just that I woke up in your arms...

    D    A    F#m  G        D    A    Bm   G
e|--2----0----2----3--------5----5----7----10--------------------|
B|--3----2----2----3--------7----5----7----12--------------------|
G|--2----2----2----4--------7----6----7----12--------------------|
D|--0----2----4----5--------7----7----9----12--------------------|
A|-------0----4----5--------5----7----9----10--------------------|
E|------------2----3-------------5----7--------------------------|
   I didn't think...        Just that I didn't think...
   Whatever happened...     And whatever happened...

    G    D        G    D        D    A                    
e|--3----5--------3----5--------2----0---------------------------|
B|--3----7--------3----7--------3----2---------------------------|
G|--4----7--------4----7--------2----2---------------------------|
D|--5----7--------5----7--------0----2---------------------------|
A|--5----5--------5----5-------------0---------------------------|
E|--3-------------3----------------------------------------------|
    I want a....  I want a...   I want all the stupid old shit...  

    G    D                      G    D
e|--3----5----------------------3----5---------------------------|
B|--3----7----------------------3----7---------------------------|
G|--4----7----------------------4----7---------------------------|
D|--5----7----------------------5----7---------------------------|
A|--5----5----------------------5----5---------------------------|
E|--3---------------------------3--------------------------------|
    Like letters and sodas...   Letters and sodas...

    Em   A                          Em   Dsus2
e|--0----5--------------------------0----0-----------------------|
B|--0----5--------------------------0----2-----------------------|
G|--0----4--------------------------0----3-----------------------|
D|--2----7--------------------------2----0 ----------------------|
A|--2----7--------------------------2----------------------------|
E|--0----5--------------------------0----------------------------|
    I can feel it in my bones...    I'm gonna spend...

    D    A    F#m  G        D    A    Bm   G
e|--2----0----2----3--------5----5----7----10--------------------|
B|--3----2----2----3--------7----5----7----12--------------------|
G|--2----2----2----4--------7----6----7----12--------------------|
D|--0----2----4----5--------7----7----9----12--------------------|
A|-------0----4----5--------5----7----9----10--------------------|
E|------------2----3-------------5----7--------------------------|
    Fuck and run...         Fuck and run...

    G
e|--10 ----------------------------------------------------------|
B|--12-----------------------------------------------------------|
G|--12-----------------------------------------------------------|
D|--12-----------------------------------------------------------|
A|--10-----------------------------------------------------------|
E|---------------------------------------------------------------|
    (end with this nice chord ringing)
Tap to rate this tab
# A B C D E F G H I J K L M N O P Q R S T U V W X Y Z